ConnexionConnexionInscription
B E A D G
136 connectés Aller à Sweepyto Guitare

Jackson 5 - I Want You Back [ Artiste ]

Publié par le
13/05/2011
16388 vues
Moyen 3
http://www.youtube.com/watch?v=kTUiQzhA0Go
    
        

--------------------------------------------------------------------
D-------------1--3-------------------------0-1--2----3--------------
A-------2--3-------4----4--------1--3-4------------------3----4-----
E--4----------------------------------------------------------------4

G-------------------------------------------------------------------------------------
D-------------------------------------------6-----6----6----6--5----5--3-3-----------
A---------0------------------6----------6-8---8-----------------------------6---3-6-3
E----0---------4--------6---------4---------------------------------------------------

G---------------------------------------------------------------------------------------------
D---------------------------1--------1--2---3----3--------------------------------------6----6
A----4----4--3----3--1-1--------1-------------------3----4---------------6---------6-8---8---
E--------------------------------------------------------------4-----6---------4--------------

G-------------------------------------------------------------------------------------------------
D-----------------1-3-------------------------0-1--2--3-------------------------------------6---6
A-------------2-3-----4---4--------1--3--4-----------------3----4--------------6-------6-8---8--
E--4------------------------------------------------------------------4----6-------4-------------

G-------------------------------------------------------------------------------------------------
D-----------------1-3-------------------------0-1--2--3-------------------------------------6---6
A-------------2-3-----4---4--------1--3--4-----------------3----4--------------6-------6-8---8--
E--4------------------------------------------------------------------4----6-------4-------------

G---------------------------------------------------------------------------------------------
D----6----6--5----5----3--3------------------------------------1---1----2--3----3------------
A----------------------------6----3-6-3--4----4--3----3--1-1-----1-----------------3----4----
E---------------------------------------------------------------------------------------------4

G-----------------------------------------------------------------------------------------------
D----------------------6----6----6----6--5----5--3-3-----------------------------------1----1-2
A---------6--------6-8---8----------------------------6--3-6-3----4----4--3----3--1-1----1-----
E----6--------4---------------------------------------------------------------------------------

G------------------------------------------------------------------
D----3--3----------------------------------------------------------
A---------3----4----------------6----------------------------------
E-------------------4------6---------4-4-4-4---------------4-4-4-4-

G----------------------------------------------------------------------------------------
D----3--3--------------------------------------------3-6----------------3----------3-6---
A---------3----4-----------------------------------------3----3------4------------------3
E-------------------4------------------------------------------------------4-------------

G-----------------------------5-------------------------
D-----------3------------3-6----------5------3-6--------
A----3----4---------------------3--6----4------------3-6
E-------------4-----------------------------------4------

G-------------------------------------------------------------------------------------
D----6----6--5----5--3-3---------------------------------1----1-2--3--3--------------
A---------------------------6----3-6-3--4----4--3--1--1----1-------------3------4----
E-------------------------------------------------------------------------------------4

G------------------------------------------------------------------------
D---------------------------------------------------------------------6--
A---------6-----------------------------------------------------6--8----8
E----6-------------4-4-4-4----------------4--4--4--4---------------------

G---------------------------------------------6-----------------------------------------------
D----6----6--5----5--3-3-------------------6---------------------1----1--2--3----3-----------
A---------------------------6----6-6----4-------3----3-3-1--1-1---------------------3----4---
E---------------------------------------------------------------------------------------------4

G-------------------------------------------------------------------------------------------------
D------------------------------------------------------------6-----6----6--5---5-3-3-------------
A---------6--------------------------------------------6--8----8----------------------6---3--6--3
E----6-------------4-4-4-4----------------4-4-4-4------------------------------------------------

G--------------------------------------------------------------------------------------
D------6-----------------------1---1--2--3--------------------------------------------
A----4------3----3-3-1--1-1-----1----------3----3----3-4-----------------6------------
E----------------------------------------------1---------------4----6-----------4-4-4-4

G---------------------------------------------------------------------------------
D------------------------------------6--------6----6--5----5--3--3----------------
A-------------------------------6-8------8----------------------------6----3--6--3
E----------4--4-4--4--------------------------------------------------------------

Enjoy it and appreciate it.
Source: http://www.bassmasta.net/j/jackson_5/150333.html Tablature player for this song:

    
    

1 Commentaire

1 2 3 4 5
2 notes
Notes pour I Want You Back Basse Tab - (Jackson 5) | Slappyto : 2/5 sur 2 notes
#1
18/05/2011 16:12:13
Dans la deuxième ligne, les deux premières notes Mi et La sont de trop. ça doit être une erreur de saisie.
0
+2

En Live

Yvesson a commenté le topic [Amateurs de photographie, bon-jour/soir !] de cha0s-the0ry il y a 3 minutes
Yvesson a commenté le topic [Le Topic du Freepost 7] de Vikie il y a 11 minutes
Yvesson, sam et YannGGP ont commenté le topic [La mort de Slappyto?] de kurt il y a 11 minutes
Glimmerkajal vient tout juste de rejoindre la communauté Slappyto. Bienvenue ! il y a 2 jours
Wario a commenté le topic [videothèque des sons] de mr gone il y a 1 semaine
Lebollos59 vient tout juste de rejoindre la communauté Slappyto. Bienvenue ! il y a 1 semaine
GregRock vient tout juste de rejoindre la communauté Slappyto. Bienvenue ! il y a 1 semaine
Chris927 vient tout juste de rejoindre la communauté Slappyto. Bienvenue ! il y a 2 semaines
Greeshma vient tout juste de rejoindre la communauté Slappyto. Bienvenue ! il y a 2 semaines