ConnexionConnexionInscription
B E A D G
144 connectés Aller à Sweepyto Guitare

Prince - New Position [ Artiste ]

Publié par le
13/05/2011
3536 vues
Débutant 2
http://www.deezer.com/listen-664166
    
        

Prince and the revolution
New Position 
Parade

Motif  en Bb                                           

|------------------------|-----------------------|
|------------------------|-----------------------| 4X
|-----------5---6--7--8--|-----------5---6--5----|
|--6----6----------------|--6----6---------------|


Motif en  C#                                             

|------------------------|-----------------------|
|-----------3---4--5--6--|-----------3---4--3----| 4X
|--4----4----------------|--4----4---------------|
|------------------------|-----------------------|

Jouer les motifs plusieurs fois en alternance 



Motif avec des variations à partir de 1.37 jusqu'à la fin  
                                         
|------------------------|-------------------------|
|-----------3---4--5--6--|--L--8----9----10----11--|
|--4----4----------------|-------------------------|
|------------------------|-------------------------|

                                             
|------------------------|-----------------------|
|------------------------|-----------------------|
|-----------5---6--7--8--|-----------5---6--5----|
|--6----6----------------|--6----6---------------|
                                         
   
|-------------------------|------------------------|
|-------------------------|------------------------|
|------------5---6--7--8--|------------5---6--7----|
|--6----6--x--------------|--6----6--6-------------|

           
|----------------------|----------------------|-------------------|
|------------5---------|--6---------7---------|--8----------------|
|--8-------------------|----------------------|-------------------|
|----------------------|----------------------|-------------------|


|----------------------|-------------------------|
|-----------------8----|-------------------------|
|----------------------|------------5---6--7--8--|
|--------------6-------|--6----6--x--------------|


|-----------------------|-------------------------|
|-----------------------|-------------------------|
|-----------5---6--5----|------------5---6--7--8--|
|--6----6---------------|--6----6--x--------------|

 
|-------------------------|--------------------------|
|-------------------------|--8-----8----6--6-5--3--5-|
|------------5---6--7--8--|-----8-----8--------------|
|--6----6--x--------------|--------------------------|


    
|-----------------------------|----------------------|
|--8-----8----6--6-5--3--5--L-|--8----6----5----4----|
|-----8-----8-----------------|----------------------|
|-----------------------------|----------------------|


 
|----------------------|--6s-7------------------|
|--3----5----6----7----|------------------------|
|----------------------|------------------------|
|----------------------|-------6----------------|


    
    

0 Commentaires : réagissez !

1 2 3 4 5
1 note
Notes pour New Position Basse Tab - (Prince) | Slappyto : 4/5 sur 1 note
Aucun commentaire !

En Live

Yvesson a commenté le topic [Amateurs de photographie, bon-jour/soir !] de cha0s-the0ry il y a 17 minutes
Yvesson a commenté le topic [Le Topic du Freepost 7] de Vikie il y a 25 minutes
Yvesson, sam et YannGGP ont commenté le topic [La mort de Slappyto?] de kurt il y a 26 minutes
Glimmerkajal vient tout juste de rejoindre la communauté Slappyto. Bienvenue ! il y a 2 jours
Wario a commenté le topic [videothèque des sons] de mr gone il y a 1 semaine
Lebollos59 vient tout juste de rejoindre la communauté Slappyto. Bienvenue ! il y a 1 semaine
GregRock vient tout juste de rejoindre la communauté Slappyto. Bienvenue ! il y a 1 semaine
Chris927 vient tout juste de rejoindre la communauté Slappyto. Bienvenue ! il y a 2 semaines
Greeshma vient tout juste de rejoindre la communauté Slappyto. Bienvenue ! il y a 2 semaines