ConnexionConnexionInscription
B E A D G
172 connectés Aller à Sweepyto Guitare

Eli Paperboy Reed - Come And Get It [ Artiste ]

Publié par le
18/05/2011
4344 vues
Moyen 2
http://www.youtube.com/watch?v=J5_p3iLqChQ
    
        

Come and get it                                    
Eli Paper boy Reed


Intro                                        
G||-----------------------7-----|
D||---------------7-----9---9-7-|
A||-----------------------------|
E||-----------------------------|


|--7---7-6-----------7------|--------------------7------|
|-----------9----7-9---9-7--|--5---5-4-------7-9---9-7--| 3X
|---------------------------|-----------7---------------|
|---------------------------|---------------------------|

|--7---7-6-----------7------|-------------------------|
|-----------9----7-9---9-7--|--5---5-4----------------| 1X
|---------------------------|-----------7-------------|
|---------------------------|----------------5--7--5--|



Couplet (version simple)                                                                       
------------------------|-----------------------|-----------------------|
------------------------|-----------------------|-----------------------|
--5-------5-5-----9-----|--7------7-7-----9-----|--5------5-5-----9-----|
---------------7-----7--|--------------7-----7--|--------------7-----7--|


----------------------|-------------------------|------------------------|
----------------------|-------------------------|------------------------|
--7-----7-7-----7--8--|--9----9-----9-----9--8--|--7----7----7-----7--8--|
-------------7--------|-------------------------|------------------------|

  
------------------------|-------------------------|
------------------------|-------------------------|
--9----9----9-----9--8--|-----7--7----------------|
------------------------|----------------5--7--5--|



Refrain                                                         
------------------------|------------------------|
------------------------|------------------------| 
--5----4----------------|------------------------|
----------7----5--7--5--|--3----2--0----5--7--5--|


Bridge                                          
  
|----------------------|-----------------------|--|
|----------------------|-----------------------|--|
|--10-----9----7-------|--5-----5--------------|--|
|----------------------|-----7-----7-----------|--|


   C                      D                      
|----------------------|----------------------|
|----------------------|----------------------|
|--3----3----3----3----|--5----5----5----5----|
|----------------------|----------------------|


  B                      A                                        
----------------------|---------------------|-------------------|
----------------------|---------------------|-------------------|
----------------------|---------------------|-------------------|
--7----7----7----7----|--5----5---5----5----|--5--4----3----3---|


  E                      G                                                
----------------------|----------------|-------------------------|
----------------------|----------------|-------------------------|
----------------------|----------------|------------------5------|
--0----0----0----0----|---3-------3----|-----5--5-----5-7---7-5--|



 Couplet (version + remplie)                                                   
----------------------------------|---------------------------|
----------------------------------|---------------------------|
--5----------5-4-----------5------|--------------------5------|
------------------7----5-7---7-5--|--3---3-2--0----5-7---7-5--|

        
---------------------------|-------------------------|
---------------------------|-------------------------|
--5---5-4-----------5------|-------------------------|
-----------7----5-7---7-5--|--3---3-2--0----5--7--5--|


    
    

0 Commentaires : réagissez !

1 2 3 4 5
3 notes
Notes pour Come And Get It Basse Tab - (Eli Paperboy Reed) | Slappyto : 3/5 sur 3 notes
Aucun commentaire !

En Live

Wario a commenté le topic [videothèque des sons] de mr gone il y a 5 jours
Lebollos59 vient tout juste de rejoindre la communauté Slappyto. Bienvenue ! il y a 5 jours
GregRock vient tout juste de rejoindre la communauté Slappyto. Bienvenue ! il y a 6 jours
Chris927 vient tout juste de rejoindre la communauté Slappyto. Bienvenue ! il y a 1 semaine
Greeshma vient tout juste de rejoindre la communauté Slappyto. Bienvenue ! il y a 1 semaine
Ludo ZEFISH vient tout juste de rejoindre la communauté Slappyto. Bienvenue ! il y a 1 semaine
Nicobass1793 vient tout juste de rejoindre la communauté Slappyto. Bienvenue ! il y a 1 semaine
Indonesiae vient tout juste de rejoindre la communauté Slappyto. Bienvenue ! il y a 1 semaine
Grandbill a commenté la tablature de Coup_de_pelle il y a 1 semaine