ConnexionConnexionInscription
B E A D G
147 connectés Aller à Sweepyto Guitare

No Means No - Disappear [ Artiste ]

Publié par le
29/05/2011
2616 vues
Débutant 4
http://www.youtube.com/watch?v=TPHZXESOZHc
    
        

No means No
Disappear                                                      
Dance of the headless bourgeoisie


Transcription au format guitar pro et pdf ->http://junk1000.free.free.fr/menutabs.html

    Intro 0:00 - 0:26                                                                         
G||---------------------|-----------|-------------------------|
D||---------------------|-----------|-------------------------| 4 X
A||---4-----2-----------|-----------|---------4--4-----2--3---|
E||------0------0--5----|--4--0-----|---------------4---------|



  Couplet 0:27 - 1:37                                                              
|----------------------------|
|----------1-----------------| (répéter autant que nécessaire)
|---3---3-----3-------1--2---|
|------------------3---------|



  Break 1:38 - 1:44                                                
|-------------------------|-----------------------|------------------------|-----8--------7---|
|---------3---------3-----|-----3--------3-----3--|--------5---------5-----|--------0--7------|
|-------------------------|-----------------------|------------------------|------------------|
|--0---1-----0--1------0--|--1-----0--1-----1-----|--2--3-----2--3------2--|--3---------------|



----------------------
  Couplet 1:45 - 2:28                                                                                  
----------------------



  Interlude 2:29 - 2:45                                                              
|------------10------10---------|--------10------10--12--12--12--|
|--12----12------12---------12--|----12------12------------------|
|-------------------------------|--------------------------------|
|-------------------------------|--------------------------------|


----------10------10---------|--------10------10--12--12--12--|----------10------10----------|
--12--12------12---------12--|----12------12------------------|--12--12------12----------12--|
-----------------------------|--------------------------------|------------------------------|
-----------------------------|--------------------------------|------------------------------|


----------10------10--12--12--12--|--14--12--10------10--------------|----------------------|
------12------12------------------|--------------12------12--11--10--|----------------------|
----------------------------------|----------------------------------|----------------------|
----------------------------------|----------------------------------|------------2----2----|


    2:46 - 3:14                                                                              
|--------------------------|--------------------------|
|--------------------------|--------------------------| 7X
|--------------------------|--------------------------|
|---0--1--2--1--2----1--2--|--L--1--2--1--2--1--2-----|
 
 
|-------------------------|-----------------------|
|-------------------6-----|-----7-------8---------|
|----------------------6--|--------7-------8------|
|--0--1--2--1--2----------|-----------------------|
|-------------------------|-----------------------|



---------------------------------------------
  Couplet 3:18 - 3:32

  Couplet 3:32 - 4:15 (un ton + haut en ré)  
                                                                                                       
  Couplet 4:16 - 4:54 (redescend en do)  
----------------------------------------------



  Break 4:57 - 5:01                                                                          
|-------------------------|-----------------------|------------------------|-----8--------7---|
|---------3---------3-----|-----3--------3-----3--|--------5---------5-----|--------0--7------|
|-------------------------|-----------------------|------------------------|------------------|
|--0---1-----0--1------0--|--1-----0--1-----1-----|--2--3-----2--3------2--|--3---------------|



  Pré final 5:31 - 5:42                                                                      
|------------------------|-------------------------|-----------------------|
|-----------1-------4----|-------3--1-----3--1-----|-----------------------|
|--3-------------3-------|-------------3--------3--|--1--------------------|
|--------3---------------|-------------------------|-----3--2----1----0----|



  Montée chromatique de mi à do 5:42 - 6:00                                                     
|-----------------------------------|
|-----------------------------------|
|--7--7-7-7-7-7-7-7-7-7-7-7-7-7-7-7-|
|-----------------------------------|


  Reste en Mi et redescend en Do 6:00 - 6:03                                
|--9--9-9-9-9-9-9-9-9-9-9-9-9-9-9-9-|
|-----------------------------------|
|-----------------------------------|
|-----------------------------------|



---------------------
  Couplet 6:03 - 6:22 
---------------------



  Final                                          
|------------------------|----------------------|--------5----5----|--5----5--3-----3--|
|-----------2----2--3----|--3--4---4--5---------|------------------|-------------5-----|
|--3-----3---------------|-------------------4--|---3--------------|-------------------|
|------------------------|----------------------|------------------|-------------------|


|--5--3--------------------|--------------------------|-----------------------|--5------|
|--------5--5--1-----1--2--|--3--4--3--1-----1--------|-----------1--1--------|---------|
|-----------------3--------|--------------3-----3--1--|-----1--3--------3--1--|--3------|
|--------------------------|--------------------------|--3--------------------|---------|

    
    

1 Commentaire

1 2 3 4 5
1 note
Notes pour Disappear Basse Tab - (No Means No) | Slappyto : 2/5 sur 1 note
#1
01/12/2014 23:24:39
yes no amis punk cannadien
0
0

En Live

Glimmerkajal vient tout juste de rejoindre la communauté Slappyto. Bienvenue ! il y a 2 jours
Wario a commenté le topic [videothèque des sons] de mr gone il y a 1 semaine
Lebollos59 vient tout juste de rejoindre la communauté Slappyto. Bienvenue ! il y a 1 semaine
GregRock vient tout juste de rejoindre la communauté Slappyto. Bienvenue ! il y a 1 semaine
Chris927 vient tout juste de rejoindre la communauté Slappyto. Bienvenue ! il y a 2 semaines
Greeshma vient tout juste de rejoindre la communauté Slappyto. Bienvenue ! il y a 2 semaines
Ludo ZEFISH vient tout juste de rejoindre la communauté Slappyto. Bienvenue ! il y a 2 semaines
Nicobass1793 vient tout juste de rejoindre la communauté Slappyto. Bienvenue ! il y a 2 semaines
Indonesiae vient tout juste de rejoindre la communauté Slappyto. Bienvenue ! il y a 2 semaines