ConnexionConnexionInscription
B E A D G
145 connectés Aller à Sweepyto Guitare

Menahan Street Band - Make The Road By Walking [ Artiste ]

Publié par le
25/05/2011
4773 vues
Moyen 1
http://www.youtube.com/watch?v=BQEsZ3s17lE
    
        

**************************************************
* Menahan Street Band : Make The Road By Walking *
**************************************************

mesure = 2/4, tempo = 90, subdivision (-) = double-croche
suggestion de réglages :
    micro : 100% manche
    EQ = 50% bass / 50% mid / 50% treble

Intro :
G|--------|--------|
D|6-------|--------|
A|----8---|6---4---|
E|--------|--------|

Couplet :
G|--------|--------|--------|--------|--------|--------|--------|--------|
D|-----686|8---86--|-----686|8---86--|-----686|8---86--|----6---|----6---|
A|----8---|------8+|8---8---|------8+|8---8---|------8+|8----864|-----864|
E|6-------|--------|--------|--------|--------|--------|--------|6-------|

Couplet
Couplet

Couplet 2 :
G|--------|--------|--------|--------|--------|--------|--------|--------|--------|--------|
D|-----686|8---86--|-----686|8---86--|-----686|8---86--|6-------|--------|--------|----6---|
A|----8---|------8+|8---8---|------8+|8---8---|------68|--------|--------|--------|-----864|
E|6-------|--------|--------|--------|--------|--------|--------|--------|--------|--------|

Couplet

Couplet 3 :
G|--------|--------|--------|--------|--------|--------|--------|-----686|
D|-----686|8---86--|-----686|8---86--|-----686|8---86--|6-------|----8---|
A|----8---|------8+|8---8---|------8+|8---8---|------68|--------|--------|
E|6-------|--------|--------|--------|--------|--------|--------|--------|

Refrain :
G|8-----6-|6----686|8-----6-|6---6---|--------|----6---|--------|--------|--------|--------|--------|--------|
D|----68-8|----8---|----68-8|-----864|6---64--|-----864|6---64--|----64--|--------|--------|--------|----6---|
A|--------|--------|--------|--------|------64|6-------|------64|6-----64|6-------|--------|--------|-----864|
E|--------|--------|--------|--------|--------|--------|--------|--------|--------|--------|4-------|--------|

Couplet
Couplet 3

Refrain 2 :
G|8-----6-|6----686|8-----6-|6---6---|--------|----6---|--------|-----686|
D|----68-8|----8---|----68-8|-----864|6---64--|-----864|6---64--|----8---|
A|--------|--------|--------|--------|------64|6-------|------64|6-------|
E|--------|--------|--------|--------|--------|--------|--------|--------|

Refrain 2

Refrain 3 :
G|8-----6-|6----686|8-----6-|6---6---|--------|----6---|--------|--------|--------|--------|--------|--------|
D|----68-8|----8---|----68-8|-----864|6---64--|-----864|6---64--|--------|--------|--------|--------|--------|
A|--------|--------|--------|--------|------64|6-------|------64|--------|6-------|--------|--------|-------+|
E|--------|--------|--------|--------|--------|--------|--------|6---6---|--------|--------|--------|--------|

Finale :
 |: 5x   :|                                            |: 12x   >       :|
G|--------|-----686|8-----6-|6----686|8-----6-|6---6---|--------|----6---|
D|--------|----8---|----68-8|----8---|----68-8|-----864|6---64--|-----864|
A|--------|--------|--------|--------|--------|--------|------64|6-------|
E|--------|--------|--------|--------|--------|--------|--------|--------|

=========================================================================================================================
Légende : + = étouffer la corde (stopper le son)
          |: Nx :| = répéter N fois le passage entre |: et :|
          > = en diminuant le volume
          Il y a si peu de petites variations que cela ne valait pas la peine de remplir des feuilles de tablatures
          juste pour ces dernières. Ce morceau n'est donc pas scrupuleusement retranscrit, contrairement à mon habitude.
=========================================================================================================================

Visitez http://www.ilovetabs.com pour d'autres tablatures "+R" pour guitare basse.

    
    

1 Commentaire

1 2 3 4 5
1 note
Notes pour Make The Road By Walking Basse Tab - (Menahan Street Band) | Slappyto : 5/5 sur 1 note
#1
02/06/2011 13:58:58
merci bien, ça colle super bien et elle super agréable à jouer  
0
0

En Live

Wario a commenté le topic [videothèque des sons] de mr gone il y a 5 jours
Lebollos59 vient tout juste de rejoindre la communauté Slappyto. Bienvenue ! il y a 5 jours
GregRock vient tout juste de rejoindre la communauté Slappyto. Bienvenue ! il y a 6 jours
Chris927 vient tout juste de rejoindre la communauté Slappyto. Bienvenue ! il y a 1 semaine
Greeshma vient tout juste de rejoindre la communauté Slappyto. Bienvenue ! il y a 1 semaine
Ludo ZEFISH vient tout juste de rejoindre la communauté Slappyto. Bienvenue ! il y a 1 semaine
Nicobass1793 vient tout juste de rejoindre la communauté Slappyto. Bienvenue ! il y a 1 semaine
Indonesiae vient tout juste de rejoindre la communauté Slappyto. Bienvenue ! il y a 1 semaine
Grandbill a commenté la tablature de Coup_de_pelle il y a 1 semaine