ConnexionConnexionInscription
B E A D G
145 connectés Aller à Sweepyto Guitare

Eli Paperboy Reed - Help me [ Artiste ]

Publié par le
25/05/2011
2566 vues
Moyen 1
http://www.youtube.com/watch?v=JUg8YWLUOqE
    
        

Eli Paperboy Reed
Help me

Transcription au format guitar pro et pdf = http://junk1000.free.free.fr/menutabs.html

Structure de la chanson
intro = 4 mesures, couplet = 6, refrain = 10 mesures, bridge = 10 mesures

Intro
G|----------------------------|----------------------------|----------------------------|---------------|
D|----------------------------|----------------------------|----------------------------|---------------|
A|--------------------------5-|--7-7--x-7-7--x-7-7--7--5---|--------------------------5-|--7-7--7-7--7--|
E|--3-3--0-3-3--0-3-3--3--7---|--------------------------7-|--3-3--0-3-3--0-3-3--3--7---|---------------|



Couplet 1                                                                                     
G|----------------------------|----------------------------|----------------------------|
D|----------------------------|----------------------------|----------------------------|
A|--------------------------5-|--7-7--x-7-7--x-7-7--7--5---|--------------------------5-|
E|--3-3--0-3-3--0-3-3--3--7---|--------------------------7-|--3-3--0-3-3--0-3-3--3--7---|

                       
  
------------------------------|----------------------------|----------7-----------------|
------------------------------|----------------------------|------(6)---(6)-------------|
----7-7--x-7-7--x-7-7--7--5---|--------------------------5-|--5---------------7---------|
----------------------------7-|--3-3--0-3-3--0-3-3--3--7---|----------------------------|

Intro
Couplet 

Variation de l'intro
G|----------------------------|----------------------------|----------------------------|---------------|
D|----------------------------|----------------------------|----------------------------|---------------|
A|--------------------------5-|--7-7--x-7-7--x-7-7--7--5---|----------------------------|--6--7--8--9---|
E|--3-3--0-3-3--0-3-3--3--7---|--------------------------7-|--3-3--0-3-3--0-3-3--3------|---------------|


Refrain                                                                         
G|----------------------|-------------------------|----------------------|
D|----------------------|----------------5--------|----------------------|
A|------------5-7--5--7-|--3--------5--7---7--5---|------------5-7--5--7-|
E|--3-----5-7-----------|-------------------------|--3-----5-7-----------|


------------------------|-------------------------|----------------------|----------------------|
------------------------|-------------------------|-------------5--------|----------------------|
--3--3--2--2-----7--5---|------------5-7--5--7----|--3-----5--7---7--5---|------------5-7--5--7-|
--------------5---------|--3-----5-7--------------|----------------------|--3-----5-7-----------|


-------------------------|------------------------|----------------------|
-------------------------|------------------------|----------------------|
--3--3--2--2--0--2--3----|-------------2----2-----|--3-----3-----4-----4-|
-----------------------0-|---3----3---------------|----------------------|

Intro
Couplet
  
G|-----------------------------|
D|-----------------------------| 4X 
A|-----------------------------|
E|--3--3--0-3-3--0-3-3--3--0-3-|


Bridge                                                                      
G|----------------------|----------------------|----------------------|
D|----------------------|----------------------|----------------------|
A|--7--------7---7---5--|--3--------3---3---2--|-----------7---7------|
E|---------7---7--------|---------3---3--------|--0------7---7-----3--|

 
------------------------|----------------------|----------------------|-------------------------|
------------------------|----------------------|----------------------|-------------------------|
---------------7----5---|---------5---5--------|----------------------|-------------------------|
--5----------5----------|--3---3---3-----3-5-6-|--7----7---0-----7--0-|--5--5--5--0--7--7--7--0-|


-----------------------------|---------------------------------|--------------------|
-----------------------------|---------------------------------|--------------------|
-----------------------------|---------------------------------|--------------------|
--8--8--8--9--10--10--10--10-|--10--10--10--10--10--10--10--10-|--10----------------|


Intro 

|---------------------|
|---------------------|
|---------------------|
|--0----1----2----3---|


                                             
Refrain  à répéter jusqu'à la fin avec des variantes                                                
G|----------------------|-------------------------|
D|----------------------|----------------5--------|
A|------------5-7--5--7-|--3--------5--7---7--5---|
E|--3-----5-7-----------|-------------------------|

    
    

0 Commentaires : réagissez !

1 2 3 4 5
0 notes
Aucun commentaire !

En Live

Yvesson a commenté le topic [Le Topic du Freepost 7] de Vikie il y a 1 heure
Yvesson, sam et YannGGP ont commenté le topic [La mort de Slappyto?] de kurt il y a 1 heure
Glimmerkajal vient tout juste de rejoindre la communauté Slappyto. Bienvenue ! il y a 2 jours
Wario a commenté le topic [videothèque des sons] de mr gone il y a 1 semaine
Lebollos59 vient tout juste de rejoindre la communauté Slappyto. Bienvenue ! il y a 1 semaine
GregRock vient tout juste de rejoindre la communauté Slappyto. Bienvenue ! il y a 1 semaine
Chris927 vient tout juste de rejoindre la communauté Slappyto. Bienvenue ! il y a 2 semaines
Greeshma vient tout juste de rejoindre la communauté Slappyto. Bienvenue ! il y a 2 semaines