ConnexionConnexionInscription
B E A D G
139 connectés Aller à Sweepyto Guitare

The Police - Message in a Bottle [ Artiste ]

Publié par le
30/05/2011
24901 vues
Débutant 2
http://www.youtube.com/watch?v=vLFF2P8fInI
    
        

************************************
* The Police : Message in a Bottle *
************************************

mesure = 4/4, tempo = 150, subdivision (-) = croche
suggestion de réglages :
    micro : 100% chevalet
    EQ = 100% bass / 100% mid / 100% treble

Intro :
G|--------|--------|--------|--------|
D|--------|--------|--------|--------|
A|--------|--------|--------|-------4|
E|--------|--------|--------|--------|

Couplet :
 |: 7x            :|
G|--------|--------|--------|--------|
D|--------|---44---|--------|---44---|
A|4-\00--2|2------4|4-\00--2|2-------|
E|--------|--------|--------|--------|

Refrain :
G|--------|--------|--------|--------|--------|--------|--------|--------|--------|--------|
D|--------|0002-222|--------|0002-222|44444447|00000007|44444447|00000007|44444447|0000004-|
A|00000000|--------|00000000|--------|--------|--------|--------|--------|--------|--------|
E|--------|--------|--------|--------|--------|--------|--------|--------|--------|--------|

           /-3\              /-3\              /-3\
G|--------|--------|--------|--------|--------|--------|--------|--------|
D|--------|--------|--------|--------|--------|--------|--------|--------|
A|4-4-4--4|--------|4-4-4--4|--------|4-4-4--4|--------|--------|--------|
E|--------|55-54--4|--------|55-54--4|--------|55-54--\|2-------|--------|

Couplet 2 :
                                     |: 5x            :|
G|--------|--------|--------|--------|--------|--------|--------|--------|
D|--------|--------|--------|--------|--------|---44---|--------|---44---|
A|4-\---+-|--------|--------|-------4|4-\00--2|2------4|4-\00--2|2-------|
E|--------|--------|--------|--------|--------|--------|--------|--------|

Refrain

Pont :
G|--------|--------|
D|--------|--------|
A|--------|-------4|
E|2-------|-----2+-|

Couplet

Refrain 2 :
G|--------|--------|--------|--------|--------|--------|--------|--------|--------|--------|
D|--------|0002-222|--------|0002-222|44444447|00000007|44444447|00000007|44444447|0000004-|
A|00000000|--------|00000000|--------|--------|--------|--------|--------|--------|--------|
E|--------|--------|--------|--------|--------|--------|--------|--------|--------|--------|

 |: 6x     /-3\   :|         /-3\
G|--------|--------|--------|--------|--------|--------|
D|--------|--------|--------|--------|--------|--------|
A|4-4-4--4|--------|4-4-4--4|--------|--------|--------|
E|--------|55-54--4|--------|55-54---|2-------|-------+|

Finale :
                                     |: 14x         > :|
G|--------|--------|--------|--------|--------|--------|
D|--------|--------|--------|--------|--------|---44---|
A|--------|--------|--------|-------4|4-\00--2|2------4|
E|--------|--------|--------|--------|--------|--------|

=========================================================================================================================
Légende : + = étouffer la corde (stopper le son)
          \ = glissé vers le bas
          /-3\ = triolet
          |: Nx :| = répéter N fois le passage entre |: et :|
          > = en diminuant le volume
=========================================================================================================================

Visitez http://www.ilovetabs.com pour d'autres tablatures "+R" pour guitare basse.

    
    

0 Commentaires : réagissez !

1 2 3 4 5
2 notes
Notes pour Message In A Bottle Basse Tab - (The Police) | Slappyto : 4/5 sur 2 notes
Aucun commentaire !

En Live

Wario a commenté le topic [videothèque des sons] de mr gone il y a 4 jours
Lebollos59 vient tout juste de rejoindre la communauté Slappyto. Bienvenue ! il y a 5 jours
GregRock vient tout juste de rejoindre la communauté Slappyto. Bienvenue ! il y a 6 jours
Chris927 vient tout juste de rejoindre la communauté Slappyto. Bienvenue ! il y a 1 semaine
Greeshma vient tout juste de rejoindre la communauté Slappyto. Bienvenue ! il y a 1 semaine
Ludo ZEFISH vient tout juste de rejoindre la communauté Slappyto. Bienvenue ! il y a 1 semaine
Nicobass1793 vient tout juste de rejoindre la communauté Slappyto. Bienvenue ! il y a 1 semaine
Indonesiae vient tout juste de rejoindre la communauté Slappyto. Bienvenue ! il y a 1 semaine
Grandbill a commenté la tablature de Coup_de_pelle il y a 1 semaine