ConnexionConnexionInscription
B E A D G
159 connectés Aller à Sweepyto Guitare

The Specials - Ghost Town [ Artiste ]

Publié par le
05/06/2011
3705 vues
Débutant 3
http://www.youtube.com/watch?v=Dtb5HA1ovHI
    
        

*****************************
* The Specials : Ghost Town *
*****************************

mesure = 2/4, tempo = 74, subdivision (-) = double-croche
suggestion de réglages :
    micro : 100% manche
    EQ = 50% bass / 50% mid / 50% treble

Intro :
G|--------|--------|--------|33337777|
D|--------|--------|00004444|--------|
A|--------|11111111|--------|--------|
E|22222222|--------|--------|--------|

Couplet :
G|--------|--------|--------|--------|--------|--------|--------|--------|
D|--------|----3-6-|5-------|--------|--------|----3-6-|--555555|+-------|
A|3-6-+-3-|5-+2----|-3333-+-|------2-|3-6-+-3-|5-+2----|3-------|--------|
E|--------|--------|--------|----3---|--------|--------|--------|--------|

G|--------|--------|--------|--------|--------|--------|--------|--------|
D|--------|----3-6-|5-------|--------|--------|--------|--------|--------|
A|3-6-+-3-|5-+2----|-3333-+-|----2-+-|1111-111|1-1----3|2222-322|2-2----2|
E|--------|--------|--------|--------|----1---|----1-+-|----0---|----0-+-|

Couplet

Refrain :
 |: 2x                                                                  :|
G|--------|--------|--------|--------|--------|--------|--------|--------|
D|----5+--|----5+--|----5+--|----5+--|----3+--|----3+--|----5+--|--------|
A|3-+6--2+|3-+6--2+|3-+6--2+|3-+6--6+|2-+5--5+|1-+5--5+|3-+6--6+|--------|
E|--------|--------|--------|--------|--------|--------|--------|3-------|

Intro

Pont :
G|--------|--------|--------|--------|--------|--------|--------|--------|
D|--------|--------|--------|4-+4+1--|--------|--------|--41+---|----5--+|
A|4-+44-+4|4-+44-+4|----01-4|------41|4-+44-+4|4-+4+44+|-----41+|--------|
E|--------|--------|2-+2----|--------|--------|--------|2+------|2+------|

Couplet
Couplet
Refrain

Finale :
                                                                         |: 8x   :|
G|--------|--------|--------|--------|--------|--------|--------|--------|--------|
D|--------|----3-6-|--555555|+-------|--------|----3-6-|5-------|--------|--------|
A|3-6-+-3-|5-+2----|3-------|--------|3-6-+-3-|5-+2----|-3333-+-|--------|--------|
E|--------|--------|--------|--------|--------|--------|--------|--------|--------|

=========================================================================================================================
Légende : + = étouffer la corde (stopper le son)
          |: Nx :| = répéter N fois le passage entre |: et :|
=========================================================================================================================

Visitez http://www.ilovetabs.com pour d'autres tablatures "+R" pour guitare basse.

    
    

3 Commentaires

1 2 3 4 5
3 notes
Notes pour Ghost Town Basse Tab - (The Specials) | Slappyto : 5/5 sur 3 notes
#3
10/07/2011 22:58:58
Je suis un grand fan des Specials   j'ai déjà posté la tab de too hot et la je vais me lancer sur do the dog, Monkey man et a message to you rudy   j'ai plus qu'à retranscrire en tab et c'est good  
0
0
#2
10/07/2011 21:28:13

Merci. Je suis heureux qu'elle te plaise :-)

0
0
#1
10/07/2011 16:45:39
Excellent !
Très bonne tablature.
0
0

En Live

Wario a commenté le topic [videothèque des sons] de mr gone il y a 4 jours
Lebollos59 vient tout juste de rejoindre la communauté Slappyto. Bienvenue ! il y a 5 jours
GregRock vient tout juste de rejoindre la communauté Slappyto. Bienvenue ! il y a 6 jours
Chris927 vient tout juste de rejoindre la communauté Slappyto. Bienvenue ! il y a 1 semaine
Greeshma vient tout juste de rejoindre la communauté Slappyto. Bienvenue ! il y a 1 semaine
Ludo ZEFISH vient tout juste de rejoindre la communauté Slappyto. Bienvenue ! il y a 1 semaine
Nicobass1793 vient tout juste de rejoindre la communauté Slappyto. Bienvenue ! il y a 1 semaine
Indonesiae vient tout juste de rejoindre la communauté Slappyto. Bienvenue ! il y a 1 semaine
Grandbill a commenté la tablature de Coup_de_pelle il y a 1 semaine