ConnexionConnexionInscription
B E A D G
150 connectés Aller à Sweepyto Guitare

Eli Paperboy Reed - Tell me what I wanna hear [ Artiste ]

Publié par le
05/06/2011
2854 vues
Débutant 1
http://www.youtube.com/watch?v=EZW8J1ErloY
    
        

Eli Paperboy Reed                                                  
Tell me what I wanna hear

Transcription au format guitar pro et pdf http://junk1000.free.free.fr/menutabs.html


   Intro 
G||--------------------------|--------------------------|---------------------------|-------------------|
D||--------------------------|--------------------------|---------------------------|-------------------|
A||--------------9--9--7--7--|--5--5--5--5--5-----------|--5-----5----5----5--------|-------------------|
E||--5--5--5--5--------------|-----------------7--5--7--|------------------------5--|-------------------|


   Couplet (16 mesures)
  A                                                     D                                                   
--------------------------|--------------------------|--------------------------|--------------------------|
--------------------------|--------------------------|--------------------------|--------------------------|
--------------9--9--7--7--|--------------9--9--7--7--|--5--5--5--5--------------|--5--5--5--5--------------|
--5--5--5--5--------------|--5--5--5--5--------------|--------------7--7--5--7--|--------------7--7--5--7--|

  A                                                     E                                                   
--------------------------|--------------------------|--------------------------|--------------------------|
--------------------------|--------------------------|--------------------------|--------------------------|
--------------9--9--7--7--|--------------9--9--7--7--|--7--7--7--7--------------|--7--7--7--7--------------|
--5--5--5--5--------------|--5--5--5--5--------------|--------------9--9--7--9--|--------------9--9--7--9--|

  A                                                     D                          F                         
--------------------------|--------------------------|--------------------------|-------------------------|
--------------------------|--------------------------|--------------------------|-------------------------|
--------------9--9--7--7--|--------------9--9--7--7--|--5--5--5--5--------------|--8--8--8--8--8--8--7----|
--5--5--5--5--------------|--5--5--5--5--------------|--------------7--7--5--7--|-------------------------|

  A                          D                                                                        
--------------------------|--------------------------|---------------------------|-------------------|
--------------------------|--------------------------|---------------------------|-------------------|
--------------9--9--7--7--|--5--5--5--5--------------|--5-----5----5----5--------|-------------------|
--5--5--5--5--------------|--------------7--7--7--7--|------------------------5--|-------------------|




  Refrain (16 mesures)
  E                                                     A                                                   
--------------------------|--------------------------|--------------------------|--------------------------|
--------------------------|--------------------------|--------------------------|--------------------------|
--7--7--7--7--------------|--7--7--7--7--------------|--------------9--9--7--7--|--------------9--9--7--7--|
--------------9--9--7--9--|--------------9--9--7--9--|--5--5--5--5--------------|--5--5--5--5--------------|


  E                                                     A                                                   
--------------------------|--------------------------|--------------------------|--------------------------|
--------------------------|--------------------------|--------------------------|--------------------------|
--7--7--7--7--------------|--7--7--7--7--------------|--------------9--9--7--7--|--------------9--9--7--7--|
--------------9--9--7--9--|--------------9--9--7--9--|--5--5--5--5--------------|--5--5--5--5--------------|


  D                                                     A                          F#                       
--------------------------|--------------------------|--------------------------|--------------------------|
--------------------------|--------------------------|--------------------------|--------------------------|
--5--5--5--5--------------|--5--5--5--5--------------|--------------------------|--------------------4--4--|
--------------7--7--5--7--|--------------7--7--5--7--|--5--5--5--5--4--4--4--4--|--2--2--2--2--2--2--------|


  B                                                    E                                                         
--------------------------|-------------------------|----------------------|--------------------|---------------|
--------------------------|-------------------------|----------------------|--------------------|---------------|
--2--2--2--2--------------|--2--2--2--2-------------|--7----7----7----7----|--7-----------------|---------------|
--------------4--4--2--5--|--------------4--4--2----|----------------------|--------------------|---------------|


  Couplet



A partir d'ici tout est joué un demi ton plus haut

 Couplet (A#/D#/A#/F/A#/D#/F#A#/D#)
 Refrain (F/A#/F/A#/D#/A#/G/C/F)
 Couplet

    
    

0 Commentaires : réagissez !

1 2 3 4 5
0 notes
Aucun commentaire !

En Live

Wario a commenté le topic [videothèque des sons] de mr gone il y a 4 jours
Lebollos59 vient tout juste de rejoindre la communauté Slappyto. Bienvenue ! il y a 5 jours
GregRock vient tout juste de rejoindre la communauté Slappyto. Bienvenue ! il y a 6 jours
Chris927 vient tout juste de rejoindre la communauté Slappyto. Bienvenue ! il y a 1 semaine
Greeshma vient tout juste de rejoindre la communauté Slappyto. Bienvenue ! il y a 1 semaine
Ludo ZEFISH vient tout juste de rejoindre la communauté Slappyto. Bienvenue ! il y a 1 semaine
Nicobass1793 vient tout juste de rejoindre la communauté Slappyto. Bienvenue ! il y a 1 semaine
Indonesiae vient tout juste de rejoindre la communauté Slappyto. Bienvenue ! il y a 1 semaine
Grandbill a commenté la tablature de Coup_de_pelle il y a 1 semaine