ConnexionConnexionInscription
B E A D G
153 connectés Aller à Sweepyto Guitare

Cat Stevens - I Wish, I Wish [ Artiste ]

Publié par le
13/06/2011
3062 vues
Moyen 4
http://www.youtube.com/watch?v=2jrYwbYXc2o
    
        

********************************
* Cat Stevens : I Wish, I Wish *
********************************

mesure = 12/8, tempo = 160, subdivision (-) = croche
suggestion de réglages :
    micro : 100% manche
    EQ = 100% bass / 50% mid / 50% treble

Intro :
G|------------|------------|------------|------------|------------|------------|------------|------------|
D|------------|------------|------------|------------|------------|------------|------------|------------|
A|------------|------------|------------|------------|------------|------------|------------|------------|
E|------------|------------|------------|------------|------------|------------|------------|------------|

Couplet :
G|------------|------------|---C--------|--CA---C----|------------|------------|------------|------------|
D|------------|------------|------------|------------|A--+--------|------------|------------|--55-53-----|
A|------------|------------|------------|------------|------------|5-----------|------------|---------5--|
E|------------|------------|------------|------------|------------|------------|3--3--------|+-----------|

G|------------|------------|------------|------------|------------|------------|------------|------------|
D|------------|---------4--|5-----+-----|------------|------------|7--7--+-----|------------|------------|
A|3--+--------|5--+--5-----|------------|------------|7--7--+-----|------------|5--5--+-----|------------|
E|------------|------------|---------7--|------------|------------|------------|---------7--|------------|

G|------------|------------|------------|------------|------------|
D|------------|7--7--+-----|------------|------------|------------|
A|7--7--+-----|------------|5--5--+-----|------------|------------|
E|------------|------------|---------3--|------------|------------|

Couplet 2 :
G|5--+--------|7--+--7-5--5|7-----------|------------|------------|------------|------------|------------|
D|------------|---------7--|---5--5--+--|--53-----5--|------------|------------|5--+--------|--53-----5--|
A|------------|------------|------------|------5-----|3-----+-----|5--5-----+--|------------|------5-----|
E|------------|------------|------------|------------|------------|------------|------------|------------|

G|------------|------------|------------|------------|------------|------------|------------|------------|
D|-----------7|------------|5-----+-----|------------|------------|7--7--+-----|------------|------------|
A|3--+--------|5--5--+-----|------------|------------|7--7--+-----|------------|5--5--+-----|------------|
E|------------|------------|---------7--|------------|------------|------------|---------7--|------------|

G|------------|------------|------------|------------|------------|
D|------------|7--7--------|------------|------------|------------|
A|7-----+-----|------------|5-----------|------------|------------|
E|------------|------------|---------3--|------------|------------|

Solo :
G|C-CC-CC-----|------------|------------|----PPC-C+--|C--E-CC-----|------------|------------|------A-----|
D|---------A--|C--------C-A|C-----------|--CFEC-----E|--------A+--|-----CA-CA-B|C-----------|---C-----C--|
A|------------|------------|--AA--A-----|+-----------|------------|------------|---A--A--+--|------------|
E|------------|------------|------------|------------|------------|------------|------------|------------|

G|------C--C--|+-----------|---------A-C|--A---A--C--|------------|------------|------------|------------|
D|------------|--AC--C--+--|------C-----|-----C------|A--A--+-----|C-C------C--|------------|------------|
A|------------|------------|---A--------|------------|------------|------C-----|A--A--+-----|------A-----|
E|------------|------------|------------|------------|------------|---A--------|------------|---A-----9--|

Couplet 3 :
G|------------|------------|------------|------------|------------|------------|------------|------------|
D|------------|------------|------------|+--5--5--3--|------------|------------|5--+--------|--53-----3-5|
A|------------|------------|------------|-----------5|3-----+--3--|5--5--------|------------|------5-----|
E|9--+--------|------------|3-----------|------------|------------|------------|------------|------------|

G|------------|------------|------------|------------|------------|------------|------------|------------|
D|------------|------------|5--5--+-----|------------|------------|------------|------------|------------|
A|3--3--+-----|5--5--+-----|------------|------------|7--7--+-----|------------|5--5--+-----|------------|
E|------------|------------|---------7--|------------|------------|5--5--+-----|---------7--|------------|

G|------------|------------|------------|------------|------------|
D|------------|------------|------------|------------|------------|
A|7--7--+-----|------------|5--5--+-----|------------|------------|
E|------------|5--5--+-----|---------3--|------------|------------|

Couplet 4 :
G|C-CC-C------|------------|------------|--C---A--C--|------------|------------|------------|------------|
D|------A--+--|---C-AC--+--|------------|-----C------|A--+--------|------------|------------|------A--9--|
A|------------|------------|---A--A--+--|A-----------|------------|------------|A--+--------|--A--C--C---|
E|------------|------------|------------|------------|------------|A--A--+-----|---------A--|------------|

G|------------|------------|------------|------------|------------|------------|------------|------------|
D|A--+--------|------------|------------|------------|------------|------------|------------|------------|
A|------------|------------|A-----+-----|------------|7-----+-----|------------|5--+--5-----|------------|
E|------------|A--------+--|---------7--|------------|------------|5--5--+-----|---------7--|------------|

G|------------|------------|------------|------------|------------|
D|------------|------------|------------|------------|------------|
A|7--7-------7|------------|5--5--------|------------|------------|
E|------------|5--5--------|---------3--|------------|------------|

Finale :
G|------------|------------|---C--A----A|--C--A---A-C|------------|------------|------------|------------|
D|---------A--|C--C--C--+--|---------C--|------C-----|A--A--+-----|C-----+--C--|--C---------|--C------C--|
A|3--+--A-C---|------------|------------|------------|------------|------------|---A--A--+--|---A--A-----|
E|------------|------------|------------|------------|------------|------------|------------|------------|

G|------------|------------|------------|------------|------------|------5--7--|------------|------------|
D|A--\--------|------3-----|5--+-------5|--3--+3--5--|------------|-----7------|5--5--+--5--|5--+--5--5--|
A|------------|5--5-----5--|---------5--|------------|3--3--+-----|--55--------|--5--------5|--------5---|
E|------------|------------|------------|------------|------------|------------|------------|------------|

G|5-----------|------------|------------|------------|------------|------H-----|------C--A--|--A---C----C|
D|---5--------|------------|------------|------------|---------A+-|-----AC-----|-----------C|-----C---C--|
A|------3--4--|5--+-----5-/|A--+-8A--+-8|A--+-8A-8A--|------------|---C--------|A--+--------|------------|
E|------------|------------|------------|------------|8-----------|--A---------|------------|------------|

  >
G|------------|---------7--|------------|------------|------------|------------|------------|------------|
D|A--\--------|------7----5|5--5--+----5|5----55-----|------------|3-----3-----|---5-----3-5|--3---3--5--|
A|------------|5--5--------|---------5--|---------5--|3--3--+----5|---5-----5--|------5-----|-----5------|
E|------------|------------|------------|-3-+--------|------------|------------|3-----------|------------|

G|---------5--|7-----7--7--|7-----------|------------|------------|------------|------------|--7---7--7--|
D|------------|------------|---5--5--5--|5-55-55-55-5|---------5--|------7-----|+--5--5--5-5|-----5------|
A|3--+--------|------------|------------|------------|3--3--+-----|5-----------|------------|------------|
E|------------|------------|------------|------------|------------|------------|------------|------------|

G|5-----+-----|7----75--7--|------------|------------|
D|------------|------------|5-----------|------------|
A|------------|------------|------------|------------|
E|------------|------------|------------|------------|


=========================================================================================================================
Légende : A=10,B=11,C=12,D=13,E=14,...
          + = étouffer la corde (stopper le son)
          \ = glissé vers le bas
          / = glissé vers le haut
          H = Hammer On (de la note qui se trouve juste sous le H)
          P = Pull Off (de la note qui se trouve juste sous le P)
          > = en diminuant le volume
=========================================================================================================================

Visitez http://www.ilovetabs.com pour d'autres tablatures "+R" pour guitare basse.

    
    

0 Commentaires : réagissez !

1 2 3 4 5
0 notes
Aucun commentaire !

En Live

RomBass91 a commenté le topic [Vend Carvin USA 6 Cordes] de Rif-Raf il y a 1 jour
Lowje a commenté le topic [besoin de renseignements zoom b3] de domds11 il y a 2 jours
Didoug vient tout juste de rejoindre la communauté Slappyto. Bienvenue ! il y a 2 jours
Hugo0901 vient tout juste de rejoindre la communauté Slappyto. Bienvenue ! il y a 2 jours
Rif-Raf vient tout juste de rejoindre la communauté Slappyto. Bienvenue ! il y a 2 jours
Ichran vient tout juste de rejoindre la communauté Slappyto. Bienvenue ! il y a 2 jours
LouisBasse vient tout juste de rejoindre la communauté Slappyto. Bienvenue ! il y a 5 jours
Kazhamania vient tout juste de rejoindre la communauté Slappyto. Bienvenue ! il y a 5 jours