ConnexionConnexionInscription
B E A D G
136 connectés Aller à Sweepyto Guitare

Cranberries - Zombie [ Artiste ]

Publié par le
23/06/2011
33781 vues
Débutant 3
http://www.youtube.com/watch?v=6Ejga4kJUts
    
        

G-----
D-----
A-----
E-12-


Intro (jouer 3X):
G------------------------------------------------------------------------
D------------------------------------------------------------------------
A------------------3-3-3-3-3-3-3-5-3-------------------------------------
E--0-0-0-0-0-0-0-3-0-----------------3-3-3-3-3-3-3-5-3-2-2-2-2-2-2-3-2-3- 


Couplet (jouer 4X):
G------------------------------------------------------------------
D------------------------------------------------------------------
A------------------3-3-3-3-3-3-3-3---------------------------------
E--0-0-0-0-0-0-0-0-----------------3-3-3-3-3-3-3-3-2-2-2-2-2-3-2-3-


Chœur (jouer 4X):
G------------------------------------------------------------------------
D------------------------------------------------------------------------
A------------------3-3-3-3-3-3-3-5-3-------------------------------------
E--0-0-0-0-0-0-0-3-0-----------------3-3-3-3-3-3-3-5-3-2-2-2-2-2-2-3-2-3- 


Couplet (jouer 4X):
G------------------------------------------------------------------
D------------------------------------------------------------------
A------------------3-3-3-3-3-3-3-3---------------------------------
E--0-0-0-0-0-0-0-0-----------------3-3-3-3-3-3-3-3-2-2-2-2-2-3-2-3-


Chœur (jouer 2X): 
G------------------------------------------------------------------------
D------------------------------------------------------------------------
A------------------3-3-3-3-3-3-3-5-3-------------------------------------
E--0-0-0-0-0-0-0-3-0-----------------3-3-3-3-3-3-3-5-3-2-2-2-2-2-2-3-2-3-


Chœur B (jouer 2X):
G------------------------------------------------------------------------
D------------------------------------------------------------------------
A------------------3-3-3-3-3-3-5-3-0-------------------------------------
E--0-0-0-0-0-0-0-3-0-----------------3-3-3-3-3-3-3-3-5-2-2-2-2-2-2-3-2-3-


Interlude (jouer 2X):
G----------------------------------------------------------------------
D----------------------------------------------------------------------
A------------------3-3-3-3-3-5-3-0-------------------3-3-3-3-3-5-3-0---
E--0-0-0-0-0-0-0-3-0---------------3-0-0-0-0-0-0-0-3-0---------------3-


Chœur B (jouer 2X):
G------------------------------------------------------------------------
D------------------------------------------------------------------------
A------------------3-3-3-3-3-3-5-3-0-------------------------------------
E--0-0-0-0-0-0-0-3-0-----------------3-3-3-3-3-3-3-3-5-2-2-2-2-2-2-3-2-3-


Choeur (jouer 2X):
G------------------------------------------------------------------------
D------------------------------------------------------------------------
A------------------3-3-3-3-3-3-3-5-3-------------------------------------
E--0-0-0-0-0-0-0-3-0-----------------3-3-3-3-3-3-3-5-3-2-2-2-2-2-2-3-2-3-


Solo de fin
G----------------------------------------------------------------------
D----------------------------------------------------------------------
A------------------3-3-3-3-3-5-3-0-------------------3-3-3-3-3-5-3-0---
E--0-0-0-0-0-0-0-3-0---------------3-0-0-0-0-0-0-0-3-0---------------3-

G--------------------------------------------------------------------
D--------------------------------------------------------------------
A------------------3-3-3-3-3-5-3-0-----------------------------------
E--0-0-0-0-0-0-0-3-0---------------3-0-------------------------------

    
    

1 Commentaire

1 2 3 4 5
2 notes
Notes pour Zombie Basse Tab - (Cranberries) | Slappyto : 4/5 sur 2 notes
#1
30/01/2014 20:03:34
 Ce morceaux est idéal pour commencer !
0
0

En Live

Ray a commenté le topic [Dégazage divers effets ] de Ray il y a 1 heure
Oscar2007 vient tout juste de rejoindre la communauté Slappyto. Bienvenue ! il y a 2 heures
Fendermk a voté pour le message de Captain Biftek il y a 12 heures
JD78 vient tout juste de rejoindre la communauté Slappyto. Bienvenue ! il y a 1 jour
Grobass a commenté le topic [[Ibanez GSR200] Votre avis ?] de Torus il y a 1 jour
Torus vient tout juste de rejoindre la communauté Slappyto. Bienvenue ! il y a 1 jour
Lookersbass vient tout juste de rejoindre la communauté Slappyto. Bienvenue ! il y a 2 jours
Pouetiti vient tout juste de rejoindre la communauté Slappyto. Bienvenue ! il y a 2 jours