ConnexionConnexionInscription
B E A D G
122 connectés Aller à Sweepyto Guitare

Temptations - Cloud nine [ Artiste ]

Publié par le
23/06/2011
4738 vues
Débutant 4
http://www.deezer.com/listen-7211696
    
        

Cloud Nine
The Temptations

Transcription au format guitar pro et pdf -http://junk1000.free.free.fr/menutabs.html

 Intro (la basse entre à la 5 ème mesure)
G|--------------------------|--------------------------|
D|--------------------------|--------------------------|
A|--3-5----5----3-5----5----|--3-5----5----3-5----5----|
E|--------------------------|--------------------------|



Thème du couplet sans le chant
-------------------------|--------------------------|
-------------------------|--------------------------| 3 x
--5------3--5----5----3--|--5------3--5--5-------3--|
-------------------5-----|-----------------3--5-----|



 Couplet                                           
-------------------------|--------------------------|-------------------------|--------------------------|	
-------------------------|--------------------------|-------------------------|--------------------------|
--5------3--5----5----3--|--5------3--5--5----3--4--|--5------3--5----5----3--|--5------3--5--5----3--4--|
-------------------5-----|-----------------5--------|-------------------5-----|-----------------5--------|


-------------------------|--------------------------|-------------------------|--------------------------|
-------------------------|-----------------3--5--7--|-------------------------|--------------------------|
--5------3--5----5----3--|--5------3--5--5----------|--5------3--5----5----3--|--5------3--5--5----3--4--|
-------------------5-----|--------------------------|-------------------5-----|-----------------5--------|


-------------------------|--------------------------|-------------------------|--------------------------|
-------------------------|--------------------------|-------------------------|--------------------------|
--5------3--5----5----3--|--5------3--5--5----------|--5------3--5----5----3--|--5------3--5--5----3--4--|
-------------------5-----|-----------------5--3--1--|-------------------5-----|-----------------5--------|


---------
Couplet  
---------


Bridge
-------------------------|--------------------------|
-------------------------|--5----------3-5-3-5-3----| 2 x
--5---5-------5--5-------|-----------------------5--|
-------------------------|--------------------------|

-------------------------|--------------------------|
-------------------------|--5----------5---3--------|
--5---5-------5--5-------|-------------------5------|
-------------------------|--------------------------|


-------------------------|--------------------------|-------------------------|--------------------------|
----------------------5--|-----7-7-7-7---5----------|-------------------------|--------------------------|
------4-4---5---6--7-----|-----------------7--5--3--|--5--------5--5----3--4--|--5------3--5--5----------|
--5----------------------|--5-----------------------|----------------5--------|-----------------5--3--1--|


-------------------------|--------------------------|
-------------------------|--------------------------|
--5-----3--5--5----3--4--|--5------3--5--5----3-----|
----------------5--------|-----------------5--------|


-------------------------|--------------------------|
-------------------------|--------------------------| 3x
--5----------------------|---------------------3----|
-------------------------|--------------------------|


-------------------------|------------|-------------|
-------------------------|------------|-------------|
--5----------------------|------------|-------------|
-------------------------|------------|-------------|


-------------------------|--------------------------|--------------------------|-------------------------|
-------------------------|--------------------------|--------------------------|--5-------------------5--|
--3-5----5----3-5----5---|--3-5----5----3-5----5----|--3-5----5----5--7--8--5--|-----8--7--5----7--8-----|
-------------------------|--------------------------|--------------------------|-------------------------|


-------------------------|--------------------------|-----------------------|-------------------------|
-------------------------|--5--------------------5--|-----------------------|--5-------------------5--|
----0--3--4--5--7--8--5--|------8--7--5----7--8-----|-----------5--7--8--5--|-----8--7--5----7--8-----|
-------------------------|--------------------------|-----------------------|-------------------------|

-------------------------|--------------------------|-----------------------|---------|
-------------------------|--5--------------------5--|--L--------------------|---------|
----0--3--4--5--7--8--5--|-----8--7--5--5--7--8-----|-----0--3--------------|---------|
-------------------------|--------------------------|-----------------------|---------|


-------------------------|--------------------------|-----------------------|----------------------|
-------------------------|--------------------------|-----------------------|----------------------|
-----------3-5----5------|--3-5----5----3-5----5----|--3-5----5----5----5---|----------------------|
-------------------------|--------------------------|-----------------------|-----1------2----5----|


--------------------|-------|----------------------|----------------------|---------------------|
--------------------|-------|----------------------|----------------------|---------------------|
-----------5--------|-------|-----------5----------|----------------------|-------3----5--------|
--------------------|-------|-------------------2--|-------3------4----5--|---------------------|


---|----|-----------------------|--------------------------|--------------------------|
---|----|-----------------------|--------------------------|--------------------------|
---|----|-----------3-5----5----|--3-5----5----3-5----5----|--3-5----5----3-5----5----|
---|----|-----------------------|--------------------------|--------------------------|



Final (répéter x fois jusqu'à la fin)
|---------------------------|--------------------------|
|---------------5-----------|-----------5--------------|
|---5--7--8--5-----8--7--5--|-----7--8-------0--3--4---|
|---------------------------|--------------------------|

    
    

0 Commentaires : réagissez !

1 2 3 4 5
0 notes
Aucun commentaire !

En Live

Jmeposito vient tout juste de rejoindre la communauté Slappyto. Bienvenue ! il y a 1 jour
AlexHarris vient tout juste de rejoindre la communauté Slappyto. Bienvenue ! il y a 1 jour
Ben49000 vient tout juste de rejoindre la communauté Slappyto. Bienvenue ! il y a 3 jours
Baki13110 a commenté le topic [Achat Ken Smith Hadrien Feraud] de Baki13110 il y a 4 jours
Domds11 vient tout juste de rejoindre la communauté Slappyto. Bienvenue ! il y a 4 jours
PapaBigBass vient tout juste de rejoindre la communauté Slappyto. Bienvenue ! il y a 6 jours
BASSTHEGROOVE vient tout juste de rejoindre la communauté Slappyto. Bienvenue ! il y a 6 jours