ConnexionConnexionInscription
B E A D G
118 connectés Aller à Sweepyto Guitare

Shirley Horn - Hit The Road Jack [ Artiste ]

Publié par le
23/06/2011
8807 vues
Moyen 1
http://www.deezer.com/listen-4585381
    
        

Hit the road
shirley Horn

ne vreprise Jazz du standatd de Ray Charles

Transcription au format guitar pro et pdf http://junk1000.free.free.fr/menutabs.html

  Intro et Refrain
G||-----------------------|----------------------|
D||-----------------------|----------------------| 6 X
A||--5-----3--------------|--5----3--------------|
E||-------------6----5----|------------6----5----|


  Couplet                                                                                              
-----------------------|------------------------|-----------------------|--------------------------|
-----------------------|---------------8--7-----|-----------------------|-----------7-8------------|
--5----3------------4--|--5----3----------------|--5----3------------7--|--5----3---------------4--|
------------6----5-----|------------6--------5--|------------6----5-----|---------------x-6--5-----|


  Refrain                                                                                        
-----------------------|-----------------------|----------------------|----------------------|
-----------------------|-----------------------|----------------------|----------------------|
--5----3---------------|--5----3------------4--|--5----3--------------|--5----3--------------|
------------6----5-----|------------6----5-----|------------6----5----|------------6----5----|


  Solo de saxophone                                                                                               
---------------------------|--------------------------|--------------------------|--------------------------|
------------------8--7-----|-----------------8--7-----|-----------------8--7-----|--------------3-----------|
--5------3--5--------------|--5--7--5-----------------|--5--7--5-----------------|--5--5--3--5-----1--0--4--|
------5--------6--------5--|-----------8--6--------5--|-----------8--6--------5--|--------------------------|


---------------------------|--------------------------|--------------------------|--------------------------|
-----------7--8------------|-----------7--8-----7-----|--------------------------|-----7--------------------|
--5--5--3---------------4--|--5--7--8--------8--------|--5--7--5--------8-----7--|--5--------5--8-----------|
----------------x-6--5-----|-----------------------5--|-----------8--6-----5-----|--------5--------8--5--5--|



  Solo de guitare                                                                               
---------------------------|---------------------------|--------------------------|--------------------------|
-----------------8--7------|-----------------8--7-x-5--|--7-----------8-----------|--7-----------------------|
--5--5--3--3---------------|--5--7--5--3---------------|-----8--5--3-----8--------|-----8--5--3-----8-----5--|
--------------6-------x-5--|--------------6------------|--------------------5--5--|--------------6-----5-----|


--------------------------|--------------------------|--------------------------|-------------------------|
--------------8-----------|--------------------------|--7-----------8--7--------|-------------------------|
--7--5--3--------------5--|--5--3--3-----8-----7--5--|-----5--3--------------5--|--5--3--5--8--------4----|
-----------6-----5--5-----|-----------6-----5--------|-----------6--------5-----|--------------6--5-------|


-------
Refrain
-------



    
    

0 Commentaires : réagissez !

1 2 3 4 5
2 notes
Notes pour Hit The Road Jack Basse Tab - (Shirley Horn) | Slappyto : 3/5 sur 2 notes
Aucun commentaire !

En Live

Ray a commenté le topic [Dégazage divers effets ] de Ray il y a 2 jours
Wario a commenté le topic [impédance sur orange terror basse] de bud01000 il y a 2 jours
Nofretnostress et pat ont commenté le topic [Avoir un son de Basse Piccolo ] de gegebassecover il y a 4 jours
Pat et Mushaloni ont commenté le topic [Besoin d'un bricoleur !] de Mushaloni il y a 4 jours
Wario a commenté le topic [darkglass head et leurs cabs] de skydrover il y a 5 jours
Hapexia a commenté le topic [Dégazage divers effets ] de Ray il y a 5 jours
Manoutcho vient tout juste de rejoindre la communauté Slappyto. Bienvenue ! il y a 6 jours
Gwoken94 vient tout juste de rejoindre la communauté Slappyto. Bienvenue ! il y a 1 semaine
Theodorus vient tout juste de rejoindre la communauté Slappyto. Bienvenue ! il y a 1 semaine