ConnexionConnexionInscription
B E A D G
134 connectés Aller à Sweepyto Guitare

The Police - So Lonely [ Artiste ]

Publié par le
03/07/2011
18453 vues
Débutant 2
http://www.youtube.com/watch?v=fQ1sTL_TYUM
    
        

Couplet 1 (00:00 - 00:50)
  
G ---------------------------
D ---------------------------
A -2-3----------------------   x8
E --------2-3---4-5---0-1-

Refrain 1 (00:50 - 01:14)

G ---------------------------------
D --------------------------------- 
A -33333333------------------------  x4
E ---------33333333-55555555-01--01

Couplet 1 x8 (01:14 - 2:04)
Refrain 1 x4 (02:04 - 02:27)

Solo de guitare (02:27 - 03:15)

G ---------------------------
D ---------------------------
A --4-5----------------------  x4
E -------4-5---6-7---2-3-----

G ------------------------------------
D ----------77777777-99999999-55555555
A -55555555---------------------------  x4
E ------------------------------------

Refrain 2 :  (03:15 - 03:28)

G -------------------------------------
D ----------77777777-99999999--4-5--4-5
A -55555555----------------------------  x2
E -------------------------------------

Couplet 2 : (03:28 - 04:04)

G ------------------------------     --------------------------------------
D ---------777-7---999-9---555-5     ----------77777777--99999999--55555555
A --555-5----------------------- x5  -55555555-----------------------------
E ------------------------------     --------------------------------------

END (04:04 - END)

G -------------------------------------
D ----------77777777-99999999--4-5--4-5
A -55555555----------------------------  x ???
E -------------------------------------

    
    

0 Commentaires : réagissez !

1 2 3 4 5
1 note
Notes pour So Lonely Basse Tab - (The Police) | Slappyto : 5/5 sur 1 note
Aucun commentaire !

En Live

Iscou vient tout juste de rejoindre la communauté Slappyto. Bienvenue ! il y a 2 jours
Avamak vient tout juste de rejoindre la communauté Slappyto. Bienvenue ! il y a 4 jours
Fissur79 vient tout juste de rejoindre la communauté Slappyto. Bienvenue ! il y a 4 jours
Franchement, Wario, grobass, bassman59 et Angel ont commenté le topic [Micros.] de Franchement il y a 5 jours
Philbass02 vient tout juste de rejoindre la communauté Slappyto. Bienvenue ! il y a 1 semaine
Fredbasse50 vient tout juste de rejoindre la communauté Slappyto. Bienvenue ! il y a 1 semaine