ConnexionConnexionInscription
B E A D G
129 connectés Aller à Sweepyto Guitare

Nirvana - Come As You Are [ Artiste ]

Publié par le
03/07/2011
31622 vues
Débutant 1
http://www.youtube.com/watch?v=vabnZ9-ex7o
    
        

Intro :

G|---------------------------------
D|-------5-5-5-----7---------------
A|55-6-7--7-7-7-6-5--55------------
E|---------------------------------


CHORUS 1
G|---------------------------------
D|---------------------------------
A|----------00000000---------------
E|2222222-3------------------------

CHORUS 2
G|---------------------------------
D|---------------------------------
A|----------000000000--------------
E|2222222-3------------------------
    

G|---------------------------------
D|----------000000000--------------
A|2222222-3------------------------
E|---------------------------------
    
    

4 Commentaires

1 2 3 4 5
6 notes
Notes pour Come As You Are Basse Tab - (Nirvana) | Slappyto : 3/5 sur 6 notes
#4
07/05/2015 23:18:47
Bonjour,

J'ai l'impression que mon mi ne sonne pas comme dans la chanson. Je comprends pas pourquoi.
Je pense être bien accordée pourtant
Est-ce qu'il y a quelque-chose de particulier à savoir à propos du morceau?
0
0
#3
02/10/2014 10:49:53
Je confirme, j'ai aussi appris à la jouer avec la tab' de Kaari
0
0
#2
28/09/2014 18:43:09

ok pour ça mes on dirai la version pour guitard 

lol bonne gratte

0
0
#1
09/05/2013 20:58:46

Bonjour !

 

Personnellement, j'ai trouvé une manière plus simple, et je trouve que ça ne change pas grand chose à la tab, mis à part la facilité...

Voici donc :

Intro :

G|---------0-0-------2------2------
D|0-0-1-2---2-2-2-1-0--0-0---------
A|---------------------------------
E|---------------------------------
Et à recommencer en enlevant le premier 0.
Voilà =)

0
0

En Live

Papeco vient tout juste de rejoindre la communauté Slappyto. Bienvenue ! il y a 21 heures
LeGuiss et bassman59 ont commenté le topic [MultiComp EBS...y en a combien ??] de LeGuiss il y a 1 jour
Gozo et koches ont commenté le topic [FENDER Precision Bass 70'US Japan. ] de koches il y a 1 jour
Chouze a commenté le topic [Schack Elektronik BC 3P Preamp] de zooltan il y a 1 jour
Petros vient tout juste de rejoindre la communauté Slappyto. Bienvenue ! il y a 2 jours
Jeanmichel5050 a commenté le wall de francis65 il y a 3 jours
Tomioux a commenté le topic [vds basse modulus quantum 4] de tomioux il y a 3 jours
Kazkan vient tout juste de rejoindre la communauté Slappyto. Bienvenue ! il y a 4 jours