ConnexionConnexionInscription
B E A D G
135 connectés Aller à Sweepyto Guitare

Pink Floyd - Money [ Artiste ]

Publié par le
11/07/2011
28982 vues
Débutant 4
http://www.youtube.com/watch?v=cpbbuaIA3Ds
    
        

Tempo : 130 bpm

Riff Principal P1 :
|----4-----------------------|
|------4-----------------0---|
|2-------2-------0---2-------|
|------------2---------------|

Riff Principal P2 :
|----9-------------------------|
|------9-----------------------|
|7-------7------------7---10---|
|------------7---10------------|

Pont 1 : 
|----------------------------|
|----0-------------------0---|
|2-------2-------0---2-------|
|------------2---------------|

Pont 2 :
|----------------------------------------------------|
|4---4---------------4---3---2-------------------0---|
|------4-----0---4-------------2---------0---2-------|
|--------2-----------------------0---3---------------|

Pont 3 : 
|------------------------------------------------|
|------------------------------------------------|
|2-2-2-2-2-2-2-2-2-2-2-2-2-2-2-2-2-2-2-2-2-2-2-2-|
|------------------------------------------------|

Pont 4 :
|4---2---0-----------------------|
|------------4---2---0-----------|
|------------------------4---3---|
|--------------------------------|

Solo guitare :

Riff Solo S1 :            Riff Solo S2 :
|----------|              |----------|
|----------|              |----------|
|2--5-4-3-x|              |7--6-5-4-X|
|----------|              |----------|

Outro :
|-----------------------------|
|----0-------0-------0-------0|
|2-------2-------2-------2----| Ect...
|-----------------------------|

Ordre :
P1      x10
Pont 1  x1
P1      x3
Pont 1  x1
P1      x1
Pont 2  x1
P1      x4
Pont 1  x1
P1      x3
Pont 1  x1
P1      x1
Pont 2  x1
P1      x10 (solo de saxo)
P2      x4
P1      x4
Pont 2  x1
Pont 3  x3
S1      x8
S2      x4
S1      x4
S2      x2
Pont 4  x1
S1      x12
S2      x4
S1      x4
S2      x2
Pont 4  x1
S1      x12
S2      x4
S1      x4
S2      x2
Pont 4  x1
P1      x4
Pont 1  x1
P1      x3
Pont 1  x1
P1      x1
Pont 2  x1
Outro...


    
    

3 Commentaires

1 2 3 4 5
4 notes
Notes pour Money Basse Tab - (Pink Floyd) | Slappyto : 5/5 sur 4 notes
#3
22/07/2013 09:25:50

merci pour ta tab   

0
0
#2
18/07/2011 14:02:15
super tab merci pour la corection
0
0
#1
11/07/2011 23:24:21
Petite correction : Pont 4 :
|4---2---0-----------------------|
|--------------4---2---0--------------|
|-----------------------4---3----|
|--------------------------------|
A la place des 3 "Pont 2" pendant le solo. Donc :
Ordre :
P1      x10
Pont 1  x1
P1      x3
Pont 1  x1
P1      x1
Pont 2  x1
P1      x4
Pont 1  x1
P1      x3
Pont 1  x1
P1      x1
Pont 2  x1
P1      x10 (solo de saxo)
P2      x4
P1      x4
Pont 2  x1
Pont 3  x3
S1      x8
S2      x4
S1      x4
S2      x2
Pont 4  x1
S1      x12
S2      x4
S1      x4
S2      x2
Pont 4  x1
S1      x12
S2      x4
S1      x4
S2      x2
Pont 4  x1
P1      x4
...
Désolé, je m'en suis rendu compte qu'une fois posté.

edit :

Erreur corrigée
0
0

En Live

Wario a commenté le topic [videothèque des sons] de mr gone il y a 5 jours
Lebollos59 vient tout juste de rejoindre la communauté Slappyto. Bienvenue ! il y a 5 jours
GregRock vient tout juste de rejoindre la communauté Slappyto. Bienvenue ! il y a 6 jours
Chris927 vient tout juste de rejoindre la communauté Slappyto. Bienvenue ! il y a 1 semaine
Greeshma vient tout juste de rejoindre la communauté Slappyto. Bienvenue ! il y a 1 semaine
Ludo ZEFISH vient tout juste de rejoindre la communauté Slappyto. Bienvenue ! il y a 1 semaine
Nicobass1793 vient tout juste de rejoindre la communauté Slappyto. Bienvenue ! il y a 1 semaine
Indonesiae vient tout juste de rejoindre la communauté Slappyto. Bienvenue ! il y a 1 semaine
Grandbill a commenté la tablature de Coup_de_pelle il y a 1 semaine