ConnexionConnexionInscription
B E A D G
128 connectés Aller à Sweepyto Guitare

Keziah Jones - Rhythm Is Love [ Artiste ]

Publié par le
10/07/2011
16066 vues
Moyen 1
http://www.deezer.com/listen-3129364
    
        

Intro :

G|----------------|
D|----------------|
A|----------------|
E|--7--6--4-------| x5 

G|----------------|
D|----------------|
A|----------------|
E|--7----6--------| 

Verse 1 :

G|-----------------------------4/6-6--6-6-4----------|
D|-------4/6-6--6-6-4-----------------------6--------|
A|--------------------6-0-4-4------------------------|
E|--4-4---------------------------------------0------| x3

G|-----------------------------------------|
D|-------4/6-6--6-6-4----------------------|
A|--------------------6-0-4----------------|
E|--4-4-------------------------0-0-2-3----|

G|-----------------------------4/6-6--6-6-4----------|
D|-------4/6-6--6-6-4-----------------------6--------|
A|--------------------6-0-4-4------------------------|
E|--4-4---------------------------------------0------| x3

G|-----------------------------------------|
D|-------4/6-6--6-6-4----------------------|
A|--------------------6-0-4----------------|
E|--4-4-------------------------0-0-2-3----|

G|-----------------------------4/6-6--6-6-4----------|
D|-------4/6-6--6-6-4-----------------------6--------|
A|--------------------6-0-4-4------------------------|
E|--4-4---------------------------------------0------| x2

Chorus : 

G|----9-------------------------------9----------------------------|
D|-----------------------------------------------------------------|
A|--7---7-x---------7---7-x---------7---7-x---------7--------------|
E|----------7---7-x---------7---7-x---------7---7-x-----7\---------| 
      P                               P

Verse 2 : 

G|-----------------------------4/6-6--6-6-4----------|
D|-------4/6-6--6-6-4-----------------------6--------|
A|--------------------6-0-4-4------------------------|
E|--4-4---------------------------------------0------| x3

G|-----------------------------6-6-----------|
D|-------4/6-6--6-6-4------------------------|
A|--------------------6-0-4-4----------------|
E|--4-4--------------------------------------| 

G|-----------------------------4/6-6--6-6-4----------|
D|-------4/6-6--6-6-4-----------------------6--------|
A|--------------------6-0-4-4------------------------|
E|--4-4---------------------------------------0------| x4

Chorus : 

G|----9-------------------------------9----------------------------|
D|-----------------------------------------------------------------|
A|--7---7-x---------7---7-x---------7---7-x---------7--------------|
E|----------7---7-x---------7---7-x---------7---7-x-----7\---------| 
      p                               P

Verse 3 : 

G|-----------------------------4/6-6--6-6-4----------|
D|-------4/6-6--6-6-4-----------------------6--------|
A|--------------------6-0-4-4------------------------|
E|--4-4---------------------------------------0------| x7

G|---------------------------------------------------------|
D|-------4/6-6--6-6-4--------------------------------------|
A|--------------------6-0-4-4--4---------------------------|
E|--4-4--------------------------0-0--0-1-1--1-2-2--0------|

G|-----------------------------4/6-6--6-6-4----------|
D|-------4/6-6--6-6-4-----------------------6--------|
A|--------------------6-0-4-4------------------------|
E|--4-4---------------------------------------0------| 

G|---------------------------------------------------------|
D|-------4/6-6--6-6-4--------------------------------------|
A|--------------------6-0-4-4--4---------------------------|
E|--4-4--------------------------0-0--0-1-1--1-2-2--0------|

G|-----------------------------4/6-6--6-6-4----------|
D|-------4/6-6--6-6-4-----------------------6--------|
A|--------------------6-0-4-4------------------------|
E|--4-4---------------------------------------0------| x4

Fin : 

G|----9----------------------------------------------------------|
D|---------------------------------------------------------------|
A|--7---7-x---------7---7-x---------7---7-x---------7------------|
E|----------7---7-x---------7---7-x---------7---7-x-----7-7------| 
    
    

4 Commentaires

1 2 3 4 5
5 notes
Notes pour Rhythm Is Love Basse Tab - (Keziah Jones) | Slappyto : 5/5 sur 5 notes
#4
11/07/2011 10:51:05
Merci Setsuna  En espérant que la tablature te plaise. 
0
0
#3
11/07/2011 02:54:33

Quelle magnifique idée de mettre du Keziah Jones =D très bons gouts musicaux l'ami  

0
0
#2
11/07/2011 00:15:08
En effet, je n'ai pas fait attention   petite erreur d'inattention.
Je te remercie  
0
0
#1
11/07/2011 00:00:53

Je veux pas jouer mon chieur mais en anglais on écrit rHythm is love. 

0
0

En Live

Glimmerkajal vient tout juste de rejoindre la communauté Slappyto. Bienvenue ! il y a 2 jours
Wario a commenté le topic [videothèque des sons] de mr gone il y a 1 semaine
Lebollos59 vient tout juste de rejoindre la communauté Slappyto. Bienvenue ! il y a 1 semaine
GregRock vient tout juste de rejoindre la communauté Slappyto. Bienvenue ! il y a 1 semaine
Chris927 vient tout juste de rejoindre la communauté Slappyto. Bienvenue ! il y a 2 semaines
Greeshma vient tout juste de rejoindre la communauté Slappyto. Bienvenue ! il y a 2 semaines
Ludo ZEFISH vient tout juste de rejoindre la communauté Slappyto. Bienvenue ! il y a 2 semaines
Nicobass1793 vient tout juste de rejoindre la communauté Slappyto. Bienvenue ! il y a 2 semaines
Indonesiae vient tout juste de rejoindre la communauté Slappyto. Bienvenue ! il y a 2 semaines