ConnexionConnexionInscription
B E A D G
159 connectés Aller à Sweepyto Guitare

Noir Désir - L'homme Préssé [ Artiste ]

Publié par le
07/07/2011
27396 vues
Débutant 4
http://www.youtube.com/watch?v=J8Z549GKkeM
    
        

Tempo : 100 bpm

Riff couplet 1 :
|--------------------------|
|--------------------------|  
|-----------------------3--| 
|5--0-3-5--0-3-5--0-3-5----|

Riff couplet 2 :
|--------------------------|
|-----------------------3--|
|5--0-3-5--0-3-5--0-3-5----|
|--------------------------|

Riff couplet 3 :
|--------------------------------|
|--------------------------------|
|--------------------------------|
|3-3-3-3-3-3-3-2-1-1-1-1-1-1-1-1-|

Riff refrain 1 :
|-------------------------------------------------------------------------|
|-------------------------------------------------------------------------|
|----------------3-3-3-3-3-3-3-3----------------------------------------3-|
|5-5-5-5-5-5-5-5-----------------3-3-3-3-3-3-3-3-5--0-3-5--0-3-5--0-3-5---|

Riff refrain 2 :
|----------------------------------------------------------------|
|----------------------------------------------------------------|
|----------------3-3-3-3-3-3-3-3---------------------------------|
|5-5-5-5-5-5-5-5-----------------3-3-3-3-3-3-3-3-5-5-5-5-5-5-5-5-|

Riff refrain 3 :
|----------------------------------------------------------------|
|------------------------------------5-------7-------------------|
|----------------2-2-2-2-2-2-2-2-3-3---3-5-5---5-----------------|
|5-5-5-5-5-5-5-5---------------------------------5-5-5-5-5-3-0-3-|

Ordre :
Silence de 4 temps : x4
Couplet 1          : x11
Couplet 2          : x2
Couplet 1          : x4
Couplet 3          : x1
Couplet 1          : x2
Refrain 1          : x2
Couplet 1          : x4
Couplet 2          : x2
Couplet 1          : x6
Couplet 2          : x2
Couplet 1          : x2
Couplet 3          : x1
Couplet 1          : x2
Refrain 1          : x2
Refrain 2          : x4
Refrain 3          : X1
Refrain 2          : x4
    
    

4 Commentaires

1 2 3 4 5
2 notes
Notes pour L'homme Préssé Basse Tab - (Noir Désir) | Slappyto : 5/5 sur 2 notes
#4
31/10/2014 15:12:39

tablature Nickel

il manque juste une variation sur un des derniers refrain .

celui où le chanteur accélère .
la première phrase est sur les accords standards du refrain, 

la 2° ( a 2'55 environ ) il y a une montée A-B-C/D-A .

 

0
0
#3
10/07/2011 22:46:55
Pas de soucis camarade  
0
0
#2
10/07/2011 22:43:44
Ah oui ! M*rde ! Je me suis trompé en recopiant ! Merci d'avoir jeté un œil.  
0
0
#1
10/07/2011 22:39:40
Pour le Riff couplet 3 je pense que c'est Sol (8fois) et Fa (8fois) et non pas La# comme tu as mis.

E|-3-3-3-3-3-3-3-2-1-1-1-1-1-1-1-1  (on peut laisser ta liaison avec le Fa#)

Sinon très bonne tablature   je te met 5 étoiles.
0
0

En Live

Wario a commenté le topic [videothèque des sons] de mr gone il y a 4 jours
Lebollos59 vient tout juste de rejoindre la communauté Slappyto. Bienvenue ! il y a 5 jours
GregRock vient tout juste de rejoindre la communauté Slappyto. Bienvenue ! il y a 6 jours
Chris927 vient tout juste de rejoindre la communauté Slappyto. Bienvenue ! il y a 1 semaine
Greeshma vient tout juste de rejoindre la communauté Slappyto. Bienvenue ! il y a 1 semaine
Ludo ZEFISH vient tout juste de rejoindre la communauté Slappyto. Bienvenue ! il y a 1 semaine
Nicobass1793 vient tout juste de rejoindre la communauté Slappyto. Bienvenue ! il y a 1 semaine
Indonesiae vient tout juste de rejoindre la communauté Slappyto. Bienvenue ! il y a 1 semaine
Grandbill a commenté la tablature de Coup_de_pelle il y a 1 semaine