ConnexionConnexionInscription
B E A D G
156 connectés Aller à Sweepyto Guitare

Hawa - Miss Party [ Artiste ]

Publié par le
11/07/2011
2880 vues
Débutant 4
http://www.deezer.com/listen-11072841
    
        

Hawa
Mis Party                                                   



Intro
    Bb7                                                                                              
|--------------------------|-------------------------|-------------------------|----------------------|
|--------------------------|-------------------------|-------------------------|----------------------|
|--------------------------|-------------------------|-------------------------|----------------------|
|-----6---6--6-----6--6----|-----6--6--6-----6--6----|-----6--6--6-----6--6----|-----6--6-------------|


Couplet
   Bb7                                                                                                       
|-------------3--1--------|--------------------------|-------------3--1--------|----------------------|
|-------------------3--1--|-----1--------1--2--3-----|-------------------3--1--|--1-------1--2--3-----| 4X
|--1-------1--------------|-----------1--------------|--1-------1--------------|-------1--------------|
|-------------------------|--------------------------|-------------------------|-------------------1--|


Pré refrain
   Eb                                                 Bb                                             
|-----------------------|-----8-----6-----------6--|------------------------|-----------------------|
|-------5----6--7----8--|-----------------8--------|--8----8--6-----6----8--|-----8----6------------|
|--6--------------------|--------------------------|-------------8----------|------------------8----|
|-----------------------|--------------------------|------------------------|-----------------------|


  Eb                                              C                                              
|-----------------------|-----8----6-------6----|------------------------|-----------------------|
|-------5----6--7----8--|---------------8-------|------------------2--3--|-------------15--------|
|--6--------------------|-----------------------|--3----3----3--5--------|-----------------------|
|-----------------------|-----------------------|------------------------|-----------------------|


Refrain ( = couplet)
   Bb7                                                                                                       
|-------------3--1--------|--------------------------|-------------3--1--------|----------------------|
|-------------------3--1--|-----1--------1--2--3-----|-------------------3--1--|--1-------1--2--3-----| 
|--1-------1--------------|-----------1--------------|--1-------1--------------|-------1--------------|
|-------------------------|--------------------------|-------------------------|-------------------1--|


Break 2:40 - 3:05
  Bb7                                                                                                         
|---------------------|-----------------------|---------------------|---------------------|
|---------------------|--------------8--6-----|---------------------|---------------------|
|---------------------|--------------------8--|---------------------|---------------------|
|--6----6-------------|-----------------------|--6----6-------------|---------------------|


|---------------------|-----------------------|---------------------|--------------6-----------|
|---------------------|---------8----8--6-----|---------------------|--------6--8-----8--6-----|
|---------------------|--------------------8--|---------------------|-----8-----------------8--|
|--6----6-------------|-----------------------|--6----6-------------|--------------------------|

 
|---------------------|-----------------------|---------------------|---------------------|
|---------------------|-----------------6-----|---------------------|---------------------|
|---------------------|--------------8-----8--|---------------------|---------------------|
|--6----6-------------|-----------------------|--6----6-------------|--6----6-------------|

                                                                       Bb7                    
|---------------------|-----------------------|---------------------|---------------------|
|---------------------|-----------------------|---------------------|---------------------|
|---------------------|-----------------------|---------------------|---------------------|
|---------------------|--6----6---------------|---------------------|--6----6-------------|

 
|-----8--8--8--8--8--10----|
|--------------------------|
|--8-----------------------|
|--------------------------|


Final
  Bb7
|---------------------|---------------------|---------------------|--------------------------|-----|
|---------------------|---------------------|---------------------|--------------------------|-----|
|---------------------|---------------------|---------------------|-------------6--8---------|-----|
|--6-------6--6----6--|--6-------6--6----6--|--6-------6--6----6--|--6-------6--------8--10--|--6--|


    
    

0 Commentaires : réagissez !

1 2 3 4 5
0 notes
Aucun commentaire !

En Live

Wario a commenté le topic [videothèque des sons] de mr gone il y a 5 jours
Lebollos59 vient tout juste de rejoindre la communauté Slappyto. Bienvenue ! il y a 5 jours
GregRock vient tout juste de rejoindre la communauté Slappyto. Bienvenue ! il y a 6 jours
Chris927 vient tout juste de rejoindre la communauté Slappyto. Bienvenue ! il y a 1 semaine
Greeshma vient tout juste de rejoindre la communauté Slappyto. Bienvenue ! il y a 1 semaine
Ludo ZEFISH vient tout juste de rejoindre la communauté Slappyto. Bienvenue ! il y a 1 semaine
Nicobass1793 vient tout juste de rejoindre la communauté Slappyto. Bienvenue ! il y a 1 semaine
Indonesiae vient tout juste de rejoindre la communauté Slappyto. Bienvenue ! il y a 1 semaine
Grandbill a commenté la tablature de Coup_de_pelle il y a 1 semaine