ConnexionConnexionInscription
B E A D G
138 connectés Aller à Sweepyto Guitare

The Clash - Ghetto defendant [ Artiste ]

Publié par le
14/07/2011
4181 vues
Débutant 3
http://www.youtube.com/watch?v=UliotoMv7UY
    
        

Riff 1 :
|--------------------------|------7--------9------------|
|--------------------------|---7--------9---------------|
|3-3-3-3-0-----3-3-3-3-0-0-|5--------7--------3-3-3-3-0-|
|--------------------------|----------------------------|

|---------------------------|------7-------9------------|
|---------------------------|---7-------9---------------|
|3-3-3-3-0-0--3-3-3-3-0-----|5-------7--------3-3-3-3-0-|  X3
|---------------------------|---------------------------|

Riff 2 :
|-------------------0---------|------7--------9--------------|
|----------------2------------|---7--------9-----------------|
|3-2-0-0---0--3---------0--0--|5--------7--------3--2--0--0--|
|-----------------------------|------------------------------|

|------0--------------0--------|------7--------9--------------|
|---2--------------2-----------|---7--------9-----------------|
|3--------0--0--3--------0--0--|5--------7--------3--2--0--0--|
|------------------------------|------------------------------|

|-------------------0---------|------7--------9--------------|
|----------------2------------|---7--------9-----------------|
|3-2-0-0---0--3---------0--0--|5--------7--------3--2--0--0--|
|-----------------------------|------------------------------|

|------0--------------0--------|------7--------9--------------|
|---2--------------2-----------|---7--------9-----------------|
|3--------0--0--3--------0--0--|5--------7--------3--2--0--0--|
|------------------------------|------------------------------|


Riff 3 :
|--------------------------|----------------------------|
|--------------------------|----------------------------|
|--------------------------|------------------3-3-3-3-0-|
|--------------------------|----------------------------|

|---------------------------|------7-------9------------|
|---------------------------|---7-------9---------------|
|3-3-3-3-0-0--3-3-3-3-0-----|5-------7--------3-3-3-3-0-|  X3
|---------------------------|---------------------------|


Ordre :

Riff 1
Riff 2
Riff 1
Riff 2
Riff 1
Riff 2
Riff 3
Riff 1
Riff 2
Riff 1
Riff 2



    
    

0 Commentaires : réagissez !

1 2 3 4 5
2 notes
Notes pour Ghetto Defendant Basse Tab - (The Clash) | Slappyto : 5/5 sur 2 notes
Aucun commentaire !

En Live

Wario a commenté le topic [videothèque des sons] de mr gone il y a 4 jours
Lebollos59 vient tout juste de rejoindre la communauté Slappyto. Bienvenue ! il y a 5 jours
GregRock vient tout juste de rejoindre la communauté Slappyto. Bienvenue ! il y a 6 jours
Chris927 vient tout juste de rejoindre la communauté Slappyto. Bienvenue ! il y a 1 semaine
Greeshma vient tout juste de rejoindre la communauté Slappyto. Bienvenue ! il y a 1 semaine
Ludo ZEFISH vient tout juste de rejoindre la communauté Slappyto. Bienvenue ! il y a 1 semaine
Nicobass1793 vient tout juste de rejoindre la communauté Slappyto. Bienvenue ! il y a 1 semaine
Indonesiae vient tout juste de rejoindre la communauté Slappyto. Bienvenue ! il y a 1 semaine
Grandbill a commenté la tablature de Coup_de_pelle il y a 1 semaine