ConnexionConnexionInscription
B E A D G
188 connectés Aller à Sweepyto Guitare

Deftones - Uuddlrlrab Select Start [ Artiste ]

Publié par le
16/07/2011
4929 vues
Débutant 4
http://www.youtube.com/watch?v=Yvtnow0I_N0
    
        

G|------6-----6-----6-----6----7-----------------------------------------|
D|-4-4-4---4-4---4-4---4-4---4-----4-----4-----4-----4-----4-------------|
A|-----------------------------------5-5---5-5---5-5---5-5---5-5\--------|
D|-----------------------------------------------------------------------|

G|-6-----6-----6-----6-----6---7---------------------------------------|
D|---4-4---4-4---4-4---4-4---4-----4-----4-----4-----4-----4-----------|
A|-----------------------------------5-5---5-5---5-5---5-5---5-5\------|
D|---------------------------------------------------------------------|


G|------6-----6-----6-----6----7-----------------------------------------|
D|-4-4-4---4-4---4-4---4-4---4-----4-----4-----4-----4-----4-------------|
A|-----------------------------------5-5---5-5---5-5---5-5---5-5\--------|
D|-----------------------------------------------------------------------|

G|-6-----6-----6-----6-----6---7---------------------------------------|
D|---4-4---4-4---4-4---4-4---4-----4-----4-----4-----4-----4-----------|
A|-----------------------------------5-5---5-5---5-5---5-5---5-5\------|
D|---------------------------------------------------------------------|

G|-------------------------9-9-6-6------------------------------------|
D|-4-4-4-4-4-4-4-4-4-4-4-4---------------------------------7-7-7-6----|
A|---------------------------------5-5-5-5-5-5-5-5-5-5-5-5------------|
D|--------------------------------------------------------------------|

G|-------------------------9-9-6-6-------------------------------------|
D|-4-4-4-4-4-4-4-4-4-4-4-4---------------------------------------------|
A|---------------------------------5-5-5-5-5-5-5-5\--------------------|
D|---------------------------------------------------------------------|

G|-------6-----6-----6-----6---7---------------------------------------|
D|-4-4-4---4-4---4-4---4-4---4-----4-----4-----4-----4-----4-----------|
A|-----------------------------------5-5---5-5---5-5---5-5---5-5\------|
D|---------------------------------------------------------------------|

G|-6-----6-----6-----6-----6---7------------------------------|
D|---4-4---4-4---4-4---4-4---4-----4-----4-----4--------------|
A|-----------------------------------5-5---5-5---5-5-\--------|
D|------------------------------------------------------------|


G|-----|-----------------------------------------------|
D|-----|-----------------------------------------------|
A|-----|-----------------------------------------------|
D|-4---|----0-------7--4-------0-------7----4----------|X2

G|-------------------------9-9-6-6------------------------------------|
D|-4-4-4-4-4-4-4-4-4-4-4-4---------------------------------7-7-7-6----|
A|---------------------------------5-5-5-5-5-5-5-5-5-5-5-5------------|
D|--------------------------------------------------------------------|

G|-------------------------9-9-6-6--------------------------------|
D|-4-4-4-4-4-4-4-4-4-4-4-4----------------------------------------|
A|---------------------------------5-5-5-5-5-5-5-5\---------------|
D|----------------------------------------------------------------|

G|-------------------------9-9-6-6------------------------------------|
D|-4-4-4-4-4-4-4-4-4-4-4-4---------------------------------7-7-7-6----|
A|---------------------------------5-5-5-5-5-5-5-5-5-5-5-5------------|
D|--------------------------------------------------------------------|

G|-------------------------9-9-6-6--------------------------------|
D|-4-4-4-4-4-4-4-4-4-4-4-4----------------------------------------|
A|---------------------------------5-5-5-5-5-5-5-5\---------------|
D|----------------------------------------------------------------|

G|-----|-----------------------------------------------|
D|-----|-----------------------------------------------|
A|-----|-----------------------------------------------|
D|-4---|----0-------7--4-------0-------7----4----------|X2

G|-------6-----6-----6-----6---7---------------------------------------|
D|-4-4-4---4-4---4-4---4-4---4-----4-----4-----4-----4-----4-----------|
A|-----------------------------------5-5---5-5---5-5---5-5---5-5\------|
D|---------------------------------------------------------------------|

G|-6-----6-----6-----6-----6---7---------------------------------------|
D|---4-4---4-4---4-4---4-4---4-----4-----4-----4-----4-----4-----------|
A|-----------------------------------5-5---5-5---5-5---5-5---5-5\------|
D|---------------------------------------------------------------------|X2

G|----------------------------------------------------------------------|
D|----------------------------------------------------------------------|
A|----------------------------------------------------------------------|
D|-4~~~~~~-------~4~~~~~~-------4~~~~~~-------4~~~~~~-------------------|
    
    

1 Commentaire

1 2 3 4 5
1 note
Notes pour Uuddlrlrab Select Start Basse Tab - (Deftones) | Slappyto : 5/5 sur 1 note
#1
11/08/2011 18:59:53
un des plus beaux morceau des Deftones !
0
0

En Live

Kyhr et Cell ont commenté le topic [La mort de Slappyto?] de kurt il y a 2 jours
Kyhr, Cell et Malicia ont commenté le topic [Le Topic du Freepost 7] de Vikie il y a 1 semaine
Cell et Poppy ont voté pour le message de Poppyto il y a 1 mois
Cell a voté pour le message de MasterFailure il y a 1 mois
Cell a voté pour le message de grobass il y a 1 mois
Cell a commenté le topic [une chope s'il vous plait !] de Adrien21 il y a 1 mois