ConnexionConnexionInscription
B E A D G
149 connectés Aller à Sweepyto Guitare

Therion - Chain of Minerva [ Artiste ]

Publié par le
25/07/2011
2899 vues
Débutant 1
http://www.youtube.com/watch?v=Q36BHSl5dQQ
    
        

Chain of Minerva                                                
Therion

                                                                          
Thème de l'intro et du couplet

                            slide
G||---------------------|----------------------------|
D||---------------------|----------------------------|
A||--7-------7----------|-----------5-----7----------|
E||-------7-----7--0----|--(5)---7-----7-----7--0----|
                               

Pré refrain  
      B                                                                                                
G||-----------------------|------------------------|-----------------------|-------------------------|
D||------------------9----|-----9------------7--9--|------------------9----|-----9-------------------|
A||---------------9-------|----------9-------------|---------------9-------|----------9-------7--9---|
E||---7------7------------|-------------7----------|--7-------7------------|-------------7-----------|               
                

Refrain

      F                  G          A    D                      Bb                                             
G||-------------------------|------------------------|------------------------|
D||--3--3--3--3--3-------5--|--5----7----------------|------------------------|
A||-------------------------|------------5--5--5--5--|--5---------------------|
E||-------------------------|------------------------|----------6-----x--6----|


     A                        F                  D                Bb               D                   G               
G||------------------------|------------------------|-------------------------|	|-------------------------|
D||------------------------|------------------------|-------------8--8--8--8--|	|----------------------5--|
A||------------------------|--8--8--8----8-------5--|--5--5--5----------------|	|--5--5--5----5--7--8-----|
E||--5--5--5--5--5---------|------------------------|-------------------------|	|-------------------------|
                                                        Fin 1                      Fin 2
    
    

0 Commentaires : réagissez !

1 2 3 4 5
0 notes
Aucun commentaire !

En Live

Yvesson a commenté le topic [Amateurs de photographie, bon-jour/soir !] de cha0s-the0ry il y a 50 minutes
Yvesson a commenté le topic [Le Topic du Freepost 7] de Vikie il y a 58 minutes
Yvesson, sam et YannGGP ont commenté le topic [La mort de Slappyto?] de kurt il y a 59 minutes
Glimmerkajal vient tout juste de rejoindre la communauté Slappyto. Bienvenue ! il y a 2 jours
Wario a commenté le topic [videothèque des sons] de mr gone il y a 1 semaine
Lebollos59 vient tout juste de rejoindre la communauté Slappyto. Bienvenue ! il y a 1 semaine
GregRock vient tout juste de rejoindre la communauté Slappyto. Bienvenue ! il y a 1 semaine
Chris927 vient tout juste de rejoindre la communauté Slappyto. Bienvenue ! il y a 2 semaines
Greeshma vient tout juste de rejoindre la communauté Slappyto. Bienvenue ! il y a 2 semaines