ConnexionConnexionInscription
B E A D G
101 connectés Aller à Sweepyto Guitare

Audioslave - Be yourself [ Artiste ]

Publié par le
26/09/2011
7454 vues
Débutant 2
http://www.youtube.com/watch?v=WC5FdFlUcl0&ob=a...
    
        

Be Yourself
Audioslave




	Theme Principal joué pendant toute la chanson (couplet et refrain)

G|-------------------------|--------------------------|--------------------------|---------------------------|
D|-------------------------|--------------------------|--------------------------|---------------------------|
A|-------------------------|--5--5--5--5--5--5--------|--------------------------|--------------/7--7--7--7--|
E|--7--7--7--7--7--7--5----|--------------------0--0--|--3--3--3--3--3--3--0--3--|--0--0--0--0---------------|


	Variante 1
G|--------------------------|--------------------------|--------------------------|---------------------------|
D|--------------------------|--------------------------|--------------------------|---------------------------|
A|--------------------4--4--|--5--5--5--5--5--5--------|--------------------------|--------------/7--7--7--7--|
E|--7--7--7--7--7--7--------|--------------------0--0--|--3--3--3--3--3--3--0--3--|--0--0--0--0---------------|


	Pre refrain
G|-------------------------|--------------------------|--------------------------| |--------------------------|
D|-------------------------|--------------------------|--------------------------| |--------------------------|2x
A|-------------------------|--5--5--5--5--5--5--------|--------------------------| |--------------------------|
E|--7--7--7--7--7--7--5----|--------------------0--0--|--3--3--3--3--3--3--0--3--| |--0--0--0--0--0--0--0--0--|


	Variante 2
G|--------------------------|--------------------------|--------------------------|--------------------------|
D|--------------------------|--------------------4--4--|--5--5--5--5--5--5--2--5--|--------------------------|
A|--------------------4--4--|--5--5--5--5--5--5--------|--------------------------|--7--7--7--7--7--7--5--5--|
E|--7--7--7--7--7--7--------|--------------------------|--------------------------|--------------------------|



	Bridge                                                                                                   
G|------------------------------|--------------------------|--------------------------|---------------------|
D|--5------5--5--5--5--5--5--5--|--7--7--7--7--7--7-----7--|--9--9--9--9--9--9--9--9--|---------------------|
A|------------------------------|--------------------9-----|--------------------------|--9------7------5----|
E|------------------------------|--------------------------|--------------------------|---------------------|


--------------------------|---------------------------|--------------------------|---------------------|
--5--5--5--5--5--5s--9----|--7--7--7--7--7--7s--11----|--9--9--9--9--9--9--9--9--|---------------------|
--------------------------|---------------------------|--------------------------|--9------7------5----|
--------------------------|---------------------------|--------------------------|---------------------|


--------------------------|---------------------------|--------------------------|---------------------|
--5--5--5--5-----5--7--5s-|--7--7--7--7--7--7s--11----|--9--9--9--9--9--9--9--9--|---------------------|
--------------5-----------|---------------------------|--------------------------|--9------7------5----|
--------------------------|---------------------------|--------------------------|---------------------|


--------------------------|---------------------------|--------------------------|--------------------------|
--5--5--5--5--5-----/9----|--7--7--7--7--7------11----|--9--9--9--9--9--9--9--9--|--9--9--9--9--9--9--9--9--|
-----------------7--------|-----------------9---------|--------------------------|--------------------------|
--------------------------|---------------------------|--------------------------|--------------------------|


--------------------------|--------------------------|--------------------------|--7--7--7--7--7--7--7--7--|
--5--5--5--5--5--5--5--5--|--------------------------|--9--9--9--9--9--9--9--9--|--------------------------|
--------------------------|--7--7--7--7--7--7--7--7--|--------------------------|--------------------------|
--------------------------|--------------------------|--------------------------|--------------------------|


--------------------------|--------------------------|
--5--5--5--5--5--5--5--5--|--------------------------|
--------------------------|--7--7--7--7--7--7--7--7--|
--------------------------|--------------------------|


	Final
G|--------------------------|--------------------------|--------------------------|---------------------------|---|
D|--------------------------|--------------------------|--------------------------|---------------------------|-5-|
A|--------------------4--4--|--5--5--5--5--5--5--------|--------------------------|--------------/7--7--7--7--|---|
E|--7--7--7--7--7--7--------|--------------------0--0--|--3--3--3--3--3--3--0--3--|--0--0--0--0---------------|---|

    
    

2 Commentaires

1 2 3 4 5
4 notes
Notes pour Be Yourself Basse Tab - (Audioslave) | Slappyto : 4/5 sur 4 notes
#2
29/11/2011 18:11:42
Salut
Dans toutes les tablatures que tu peux trouver les lettres indiquent toujours la même chose, à savoir des effets

le "s" indique un "slide", ou glissé en français.

D'habitude j'efface ces indications mises automatiquement par guitar pro lors de l'export en format Ascii.

Tu peux trouver la version pdf et guitar pro sur cette superbe page  que où je centralise mes transcriptions.

http://junk1000.free.free.fr/menutabs.html

0
0
#1
29/11/2011 12:52:01
exelent morçeau ! juste une question a quoi sere le s merci ?
0
0

En Live

JR BASS, escaliyo et grobass ont commenté le topic [HELP CONFIG AMPLI !] de JR BASS il y a 10 heures
Fred18 vient tout juste de rejoindre la communauté Slappyto. Bienvenue ! il y a 10 heures
Escaliyo a voté pour le message de grobass il y a 13 heures
Escaliyo a commenté le topic [Basse pour débuter ] de Patmustang il y a 21 heures
Ray a voté pour le message de grobass il y a 1 jour
Jerem65 et grobass ont commenté le topic [Et vous, vous écoutez quoi maintenant ?] de nono il y a 1 jour