ConnexionConnexionInscription
B E A D G
86 connectés Aller à Sweepyto Guitare

Rita Mitsouko - Marcia Baila [ Artiste ]

Publié par le
20/09/2011
20664 vues
Débutant 4
http://www.youtube.com/watch?v=t6FVlfOgTo8
    
        

le thème principal
g|-----------------------------------------|
d|-----------------------------------------|
a|-----45-----------77-45------45--------77|
e|-45-------77------------45-------77------|


et le pont là c 'est plus aléatoire mais d après mon oreille peu experte
g|-----------------------------------------------------------------|
d|-----------------------------------------------------------------|
a|---------------------------2-22--24-5-55-5-----------72-22--2----|
e|--5--55---5-7-2--22--2-4-------------------2-5--55-5---------45--|
    
    

1 Commentaire

1 2 3 4 5
7 notes
Notes pour Marcia Baila Basse Tab - (Rita Mitsouko) | Slappyto : 1/5 sur 7 notes
#1
20/09/2011 16:06:09
tres bonne tab! mais pour faire tourner le theme principal, je crois qu'il faut rejouer une fois do# re sur la corde de la a la fin du theme.
0
0

En Live

Ben49000 vient tout juste de rejoindre la communauté Slappyto. Bienvenue ! il y a 1 jour
Baki13110 a commenté le topic [Achat Ken Smith Hadrien Feraud] de Baki13110 il y a 2 jours
Domds11 vient tout juste de rejoindre la communauté Slappyto. Bienvenue ! il y a 2 jours
PapaBigBass vient tout juste de rejoindre la communauté Slappyto. Bienvenue ! il y a 4 jours
BASSTHEGROOVE vient tout juste de rejoindre la communauté Slappyto. Bienvenue ! il y a 4 jours
Christ121968, jaydee, sharpei et erix ont commenté le topic [basse avec faible hauteur de corde] de pierrick78 il y a 5 jours
Christ121968 vient tout juste de rejoindre la communauté Slappyto. Bienvenue ! il y a 6 jours
43,65 Hz a voté pour le message de sharpei il y a 6 jours