ConnexionConnexionInscription
B E A D G
119 connectés Aller à Sweepyto Guitare

Christophe Willem - Quelle chance [ Artiste ]

Publié par le
20/09/2011
3495 vues
Moyen 4
http://www.youtube.com/watch?v=uGNqY0twgag
    
        

Quelle chance                                                         
Chrisophe Willem

Ouais je vois déjà les sourires en coin, c'est quoi cette daube, pfouff c'est d'la m****...
Alors jeune padawaan de la basse, écoute et apprend ce qu'est un groove qui arrache.

Ca se joue normalement sur une 5 cordes... mais j'ai une 4 cordes alors y'a deux ou trois notes transposées



    Fill  01:08                                                                                                         

G||--------7---------------------|-----------------------------|---------------------------|---------|---------|
D||------------------------------|--------------------------3--|---------------------------|---------|---------|
A||-----5--------0--3---5--0-5-3-|--L-1----------1---1s--5-----|---------------------------|---------|---------|
E||------------------------------|-------------3---------------|--1-----1----x-1--1s--5----|--3------|---------|




    Fill 2:20

G||---------------------|------7---------------------|-------------------------|--------------------------|
D||-------------3-------|----------------------------|----------------------3--|--------------------------|
A||---------3-5---0-3-4-|--5---------0--3---5--0-5-3-|--1----------1--1--5-----|--------------------------|
E||---------------------|----------------------------|-----------3-------------|--1-----1----x-1--1--5----|


-------------------------|------7--------------------|-------------------------|--------------------------|
-------------------------|---------------------------|----------------------3--|--------------------------|
-------------2--2--3--3--|--5--------0--3---5--0-5-3-|--1----------1--1--5-----|--------------------------|
--3------x---------------|---------------------------|-----------3-------------|--1-----1----x-1--1--5----|


                     do grave si tu as une 5 cordes
-------------------|-------------------|
-------------------|-------------------|
--3----------------|--3----------------|
-------------------|-------------------|



    Fill 3:20                                                                                               

G||------------------------|------7-------------------|-------------------------|--------------------------|
D||------------------------|--------------------------|----------------------3--|--------------------------|
A||------------------------|--5-------0--3---5--0-5-3-|--1----------1--1--5-----|--------------------------|
E||-------5----3--3--3--5--|--------------------------|-----------3-------------|--1-----1----x-1--1--5----|



-------------------------|------7--------------------|-------------------------|--------------------------|
-------------------------|---------------------------|----------------------3--|--------------------------|
-------------2--2--3--3--|--5--------0--3---5--0-5-3-|--1----------1--1--5-----|--------------------------|
--3--------3-------------|---------------------------|-----------3-------------|--1-----1----x-1--1--5----|



------------------------|-----------------------------|----------------------|-----------------------|
------------------------|--3--------------------------|----------------------|-----------------------|
--------------------3-5-|----5-5--5--0--3---5---3-5-5-|----------------------|--5--------------------|
--3----3----3-----------|-----------------------------|---------5--3---------|---------/5--3---------|



-----------------------------|-------------------------|----------------------------|
-----------------------------|-------------------------|----------------------------| etc...
-----------------------------|--5----------------------|--5-------------------------|
---------5---3---3---3---5---|---------5--3-----x-x-5--|---------5--3--5--5--8--11--|



    
    

1 Commentaire

1 2 3 4 5
2 notes
Notes pour Quelle Chance Basse Tab - (Christophe Willem) | Slappyto : 4/5 sur 2 notes
#1
01/12/2011 17:19:42
super ce groove un dur au depart mes en le bossant sa rentre
0
0

En Live

Glimmerkajal vient tout juste de rejoindre la communauté Slappyto. Bienvenue ! il y a 15 heures
Wario a commenté le topic [videothèque des sons] de mr gone il y a 1 semaine
Lebollos59 vient tout juste de rejoindre la communauté Slappyto. Bienvenue ! il y a 1 semaine
GregRock vient tout juste de rejoindre la communauté Slappyto. Bienvenue ! il y a 1 semaine
Chris927 vient tout juste de rejoindre la communauté Slappyto. Bienvenue ! il y a 1 semaine
Greeshma vient tout juste de rejoindre la communauté Slappyto. Bienvenue ! il y a 1 semaine
Ludo ZEFISH vient tout juste de rejoindre la communauté Slappyto. Bienvenue ! il y a 2 semaines
Nicobass1793 vient tout juste de rejoindre la communauté Slappyto. Bienvenue ! il y a 2 semaines
Indonesiae vient tout juste de rejoindre la communauté Slappyto. Bienvenue ! il y a 2 semaines