ConnexionConnexionInscription
B E A D G
231 connectés Aller à Sweepyto Guitare

Red Hot Chili Peppers - Snow (Hey oh) [ Artiste ]

Publié par le
06/10/2011
13658 vues
Débutant 3
http://www.youtube.com/watch?v=yuFI5KSPAt4
    
        

Couplet : ( 00:11 - 00:38 ) 



G|-----------------------------------|
D|-----------------------------------| 
A|---467----679----------------------| x6
E|-4------7--------------------------|

Variation du couplet (00:39 - 0:57)

G|----------------|----------------|----------------|----------------|
D|----------------|----------------|----------------|----------------|
A|----4-6-7---6-4-|----6-7-9-------|----4-6-7---6-4-|----------------| x2
E|4---------------|7-----------7-6-|4---------------|7---6-4-2---2---| 

Couplet : (00:58 - 1:15) x4

Variation du Couplet : (01:16 - 01:34) x4


Avant-Refrain : (01:34 - 01:47) 

G|----------------|----------------|----------------|----------------|
D|----------------|----------------|----6-------6---|----6-----------|
A|----7-------7---|----7-------9---|----------------|------------9---|
E|----------------|----------------|----------------|----------------|

  
G|----------------|----------------|
D|----------------|----------------|
A|----7-------7---|----7--77777777-|
E|----------------|----------------|

Refrain : (01:48 - 02:23) Version Simplifié 

G|----------------|----------------|----------------|---------------|
D|---99999999-----|---88888888-----|---66666666-----|-66666666------| x6
A|----------------|----------------|----------------|---------------|
E|----------------|----------------|----------------|---------------|

Couplet x6 (02:24 - 02:51)
Variation du Couplet x4 (02:52 - 03:09)
Avant Refrain (03:09 - 03:22)

Refrain jusqu'à la fin...


    
    

1 Commentaire

1 2 3 4 5
1 note
Notes pour Snow (Hey Oh) Basse Tab - (Red Hot Chili Peppers) | Slappyto : 4/5 sur 1 note
#1
12/08/2012 13:18:21
Il manque des notes
0
0

En Live

Aeros'Miss et Malicia ont commenté le topic [Le Topic du Freepost 7] de Vikie il y a 1 jour
Epic001 a commenté le topic [Comment améliorer sa basse?] de Eux31 il y a 2 jours
Epic001 a commenté le topic [Besoin avis JB] de escaliyo il y a 2 jours
Epic001 vient tout juste de rejoindre la communauté Slappyto. Bienvenue ! il y a 2 jours
Paboss24 vient tout juste de rejoindre la communauté Slappyto. Bienvenue ! il y a 3 jours
Morrighan08 a commenté le topic [Cherche groupe] de Phil08140 il y a 3 jours
Morrighan08 vient tout juste de rejoindre la communauté Slappyto. Bienvenue ! il y a 3 jours
15goul vient tout juste de rejoindre la communauté Slappyto. Bienvenue ! il y a 4 jours
Gib74 vient tout juste de rejoindre la communauté Slappyto. Bienvenue ! il y a 4 jours