ConnexionConnexionInscription
B E A D G
145 connectés Aller à Sweepyto Guitare

Interpol - Evil [ Artiste ]

Publié par le
25/11/2010
3526 vues
Débutant 4
http://www.youtube.com/watch?v=FktYzdDJdqQ
    
        

      Q    E  E  E  E  E  E     Q    E  E  E  E  E  E   
G||--------------------------|-------------------------|
D||*-------------------------|-------------------------|
A||*--8-------8--8-----------|----------------5--5-----|
E||-----------------6--6--6--|--5-------5--5--------5--|


  Q    E  E  E  E  E  E     Q    E  E  E  E  E  E   5x
-------------------------|--------------------------||
-------------------------|-------------------------*||
--8-------8--8-----------|----------------5--5--5--*||
----------------6--6--6--|--5-------5--5------------||


  Q    E  E  E  E  Q       Q    E.  S E  E  E  E   
------------------------|-------------------------|
------------------------|-------------------------|
-------------5--5--7----|-------------------------|
--5-------5-------------|--1----x---1-6--6-----6--|


                                                  PM  
  Q    E  E  E  E  E  E     Q    E.  S E  E  E  S S   
-------------------------|---------------------------|
-------------------------|------------------------8--|
-------------5--5-----5--|---------------------------|
--5-------x--------------|--1----x---1-6--6-----6----|


     PM    PM    PM    PM                            
  E  E  E  E  E  E  E  E     Q    E.  S E  E  E  E   
-----------------7-----7--|-------------------------|
-----7-----7--------------|-------------------------|
--------------5-----5-----|-------------------------|
--5-----5-----------------|--1----x---1-6--6-----6--|


  Q    E  E  E  E  E  E     Q    E.  S E  E  E  E   
-------------------------|-------------------------|
-------------------------|-------------------------|
-------------5--5-----5--|-------------------------|
--5-------x--------------|--1----x---1-6--6-----6--|


  E  E  E  E  E  E  E  E     Q    E  E  Q    E  E   
--------------------------|------------------------|
--------------------------|------------------------|
--------5--5--5--5--5--5--|--8---------------------|
--5-----------------------|----------6--6-------5--|


  Q    E  E  Q    E  E     Q    E  E  Q    E  E   
------------------------|------------------------|
------------------------|------------------------|
----------5--5-------8--|--8---------------------|
--5---------------------|----------6--6-------5--|


  Q    E  E  E  E  E  E     E  E  E  E  E  E  E  E   
-------------------------|--------------------------|
-------------------------|--------------------------|
-------5--5--5--5--5--5--|--8--8--8--8--8--8--8--8--|
--5----------------------|--------------------------|


  E  E  E  E  E  E  E  E     E  E  E  E  E  E  E  E   
--------------------------|--------------------------|
--------------------------|--------------------------|
--5--5--5--5--5--5--5--5--|--------------------------|
--------------------------|--6--6--6--6--6--6--6--6--|


  E  E  E  E  E  E  E  E     E  E  E  E  E  E  E  E   
--------------------------|--------------------------|
--------------------------|--------------------------|
--------------------------|--------------------------|
--5--5--5--5--5--5--5--5--|--8--8--8--8--8--8--8--8--|


  E  E  E  E  E  E  E  E       Q    E  E  E  E  E  E   
--------------------------||--------------------------|
--------------------------||*-------------------------|
--------------------------||*--8-------8--8-----------|
--6--6--6--6--6--6--6--6--||-----------------6--6--6--|


  Q    E  E  E  E  E  E     Q    E  E  E  E  E  E   
-------------------------|-------------------------|
-------------------------|-------------------------|
----------------5--5-----|--8-------8--8-----------|
--5-------5--5--------5--|----------------6--6--6--|


  Q    E  E  E  E  E  E   3x  Q    E.  S E  E  E  E   
--------------------------||-------------------------|
-------------------------*||-------------------------|
----------------5--5--5--*||-------------------------|
--5-------5--5------------||--1----x---1-6--6-----6--|


                                                  PM  
  Q    E  E  E  E  E  E     Q    E.  S E  E  E  S S   
-------------------------|---------------------------|
-------------------------|------------------------8--|
-------------5--5-----5--|---------------------------|
--5-------x--------------|--1----x---1-6--6-----6----|


     PM    PM    PM    PM                            
  E  E  E  E  E  E  E  E     Q    E.  S E  E  E  E   
-----------------7-----7--|-------------------------|
-----7-----7--------------|-------------------------|
--------------5-----5-----|-------------------------|
--5-----5-----------------|--1----x---1-6--6-----6--|


  Q    E  E  E  E  E  E     Q    E.  S E  E  E  E   
-------------------------|-------------------------|
-------------------------|-------------------------|
-------------5--5-----5--|-------------------------|
--5-------x--------------|--1----x---1-6--6-----6--|


  E  E  E  E  E  E  E  E     Q    E  E  Q    E  E   
--------------------------|------------------------|
--------------------------|------------------------|
--------5--5--5--5--5--5--|--8---------------------|
--5-----------------------|----------6--6-------5--|


  Q    E  E  Q    E  E     Q    E  E  Q    E  E   
------------------------|------------------------|
------------------------|------------------------|
----------5--5-------8--|--8---------------------|
--5---------------------|----------6--6-------5--|


  Q    E  E  E  E  E  E       E  E  E  E  E  E  E  E   
-------------------------||---------------------------|
-------------------------||*--------------------------|
-------5--5--5--5--5--5--||*--8--8--8--8--8--8--8--8--|
--5----------------------||---------------------------|


  E  E  E  E  E  E  E  E     E  E  E  E  E  E  E  E   
--------------------------|--------------------------|
--------------------------|--------------------------|
--5--5--5--5--5--5--5--5--|--------------------------|
--------------------------|--6--6--6--6--6--6--6--6--|


  E  E  E  E  E  E  E  E     E  E  E  E  E  E  E  E   
--------------------------|--------------------------|
--------------------------|--------------------------|
--------------------------|--------------------------|
--5--5--5--5--5--5--5--5--|--8--8--8--8--8--8--8--8--|


  E  E  E  E  E  E  E  E       W                             
---------------------------||-------------------|-----|-----|
--------------------------*||-------------------|-----|-----|
--------------5--5--7--7--*||--8----------------|-----|-----|
--6--6--6--6---------------||-------------------|-----|-----|


  H        E  E  E  E       Q    E  E  E  E  E  E   
-----------------------||--------------------------|
-----------------------||*-------------------------|
-----------5--5--7--7--||*--8-------8--8-----------|
-----------------------||-----------------6--6--6--|


  Q    E  E  E  E  E  E     Q    E  E  E  E  E  E   
-------------------------|-------------------------|
-------------------------|-------------------------|
----------------5--5-----|--8-------8--8-----------|
--5-------5--5--------5--|----------------6--6--6--|


  Q    E  E  E  E  E  E        Q    E  E  E  E  E  E   
--------------------------||--------------------------|
-------------------------*||*-------------------------|
----------------5--5--5--*||*--8-------8--8-----------|
--5-------5--5------------||-----------------6--6--6--|


  Q    E  E  E  E  E  E     Q    E  E  E  E  E  E   
-------------------------|-------------------------|
-------------------------|-------------------------|
----------------5--5-----|--8-------8--8-----------|
--5-------5--5--------5--|----------------6--6--6--|


  Q    E  E  E  E  E  E       Q    E  E  E  E  E  E   
--------------------------||-------------------------|
-------------------------*||-------------------------|
-------------5--5--7--7--*||-------------7--7--7--7--|
--5-------5---------------||--5----------------------|


    E  E  E  E  E  E  E  E     E  E  E  E  E  E  E  E   
|---------------------------|--------------------------|
|*--------------------------|--------------------------|
|*--8--8--8--8--8--8--8--8--|--5--5--5--5--5--5--5--5--|
|---------------------------|--------------------------|


  E  E  E  E  E  E  E  E     E  E  E  E  E  E  E  E   
--------------------------|--------------------------|
--------------------------|--------------------------|
--------------------------|--------------------------|
--6--6--6--6--6--6--6--6--|--5--5--5--5--5--5--5--5--|


  E  E  E  E  E  E  E  E     E  E  E  E  E  E  E  E     
--------------------------|---------------------------||
--------------------------|--------------------------*||
--------------------------|--------------5--5--7--7--*||
--8--8--8--8--8--8--8--8--|--6--6--6--6---------------||


  E  E  E  E  E  E  E  E     E  E  E  E  E  E  E  E   
--------------------------|--------------------------|
--------------------------|--------------------------|
--8--8--8--8--8--8--8--8--|--5--5--5--5--5--5--5--5--|
--------------------------|--------------------------|


  E  E  E  E  E  E  E  E       E   E   E   E  E  E  E  E   
---------------------------|------------------------------|
---------------------------|------------------------------|
--3--3--3--3--3--3--3--3S--|--13--13--13--13--5--5--7--7--|
---------------------------|------------------------------|


  W                   W                   W                 
-------------------|-------------------|-------------------|
-------------------|-------------------|-------------------|
--8----------------|--L----------------|--L----------------|
-------------------|-------------------|-------------------|


  W                                      
-------------------|-------------------||
-------------------|-------------------||
--L----------------|-------------------||
-------------------|-------------------||




Duration Legend
---------------
W - whole
H - half
Q - quarter
E - 8th
S - 16th
T - 32nd
X - 64th
. - note dotted
|-n-|  - n-tuplets


Tablature Legend
----------------
L - tied note
x - dead note
g - grace note
(n) - ghost note
> - accentuded note
NH - natural harmonic
AH - artificial harmonic
TH - tapped harmonic
SH - semi harmonic
PH - pitch harmonic
h - hammer on
p - pull off
b - bend
br - bendRelease
pb - preBend
pbr - preBendRelease
brb - bendReleaseBend
\n/ - tremolo bar dip
\n - tremolo bar dive
-/n - tremolo bar Release up
/n\ - tremolo bar inverted dip
/n - tremolo bar return
-\n - tremolo bar Release down
S - shift slide
s - legato slide
/ -  slide into from below or out of upwards
\ -  slide into from above or out of downwards
~ - vibrato
W - wide vibrato
tr - trill
TP - tremolo picking
T - tapping
S - slap
P - pop
< - fade in
^ - brush up
v - brush down
    
    

1 Commentaire

1 2 3 4 5
0 notes
#1
25/11/2010 20:24:16
bon au moins on c'est que tes fan d'interpol ^^ il faudra que je les tests elles ont l'aire simpa et pas trop compliqué et puis je te les noteré sur le passage
0
0

En Live

Grattos95 et bassman59 ont commenté le topic [Avis sur SWR] de Grattos95 il y a 31 minutes
Yaip a commenté le topic [Ampeg pf 500 sur combo Hartke] de Kakou NC il y a 10 heures
Lowje a commenté le topic [gruvgear ?] de JV62 il y a 1 jour
Lowje, Capt. Roca 974 et KaKemono ont commenté le topic [Reglage pour grOs tirant nylon] de Capt. Roca 974 il y a 1 jour
Almodovars vient tout juste de rejoindre la communauté Slappyto. Bienvenue ! il y a 1 jour
Engué vient tout juste de rejoindre la communauté Slappyto. Bienvenue ! il y a 1 jour
Kakou NC vient tout juste de rejoindre la communauté Slappyto. Bienvenue ! il y a 2 jours
Tomioux a commenté le topic [vds basse modulus quantum 4] de tomioux il y a 2 jours
Ray a commenté le topic [G&L M2500 parfait état ] de Ray il y a 4 jours