ConnexionConnexionInscription
B E A D G
154 connectés Aller à Sweepyto Guitare

Muse - Unnatural Selection [ Artiste ]

Publié par le
25/10/2011
4927 vues
Moyen 4
http://www.youtube.com/watch?v=PL6jwxw9T3c
    
        

ATTENTION A BIEN DESACCORDER VOTRE CORDE DE MI (E) EN CORDE DE RE (D) !!!

Pas de basse jusqu'à 00:47


Intro :

G|------------------
D|-------3-4-----4-5
A|------------------
D|-3-0-3-----4-4----


Premier couplet :

G|----------------------------------------------------------------------
D|----------------------------------------------------------3-4-----4-5-
A|----------------------------------------------------------------------
D|-5-5-5-5-5-5-5-8-5-8-9-10-8-10-11-11-12-0-0-0-0-0-0-3-0-3-----4-4-----

Répéter le premier couplet 6 fois


Pré-refrain :

G|-12-12-12-12-11-11-11-11-12-12-14-14-15-15-18-18-16-16-16-16-16-16-16-16-------------------------
D|-------------------------------------------------------------------------14-14-14-14-14-14-14-14-
A|-------------------------------------------------------------------------------------------------
D|-------------------------------------------------------------------------------------------------

G|-15-15-15-15-14-14-14-14-15-15-14-14-12-12-11-11-12-12-12-12-12-12-12-12-------------------------
D|-------------------------------------------------------------------------12-12-12-12-12-12-12-12-
A|-------------------------------------------------------------------------------------------------
D|-------------------------------------------------------------------------------------------------

G|-------------------------------------------------
D|-10-10-10-10-10-10-10-10-------------------------
A|-------------------------12-12-12-12-12-12-12-12\
D|-------------------------------------------------


Refrain :

G|-------------------------------------------------------------------------------------------------
D|-------------------------------------------------------------------------------------------------
A|---------------------------------3---3-3-3-3-3-3-3-3-3-3-1-1-1-1---------------------------------
D|-5---5-5-5-5-5-5-5-5-5-5-5-5-5-5---------------------------------3---3-3-3-3-3-3-3-3-3-3-3-3-3-3-

G|-------------------------------------------------------------------------------------------------
D|-------------------------------------------------------------------------------------------------
A|-1---1-1-1-1-1-1-1-1-1-1-0-0-0-0-----------------------------------------------------------------
D|---------------------------------1---1-1-1-1-1-1-2---2-2-2-2-2-2-3---3-3-3-3-3-3-4---4-4-4-4-4-4-

G|--------------------------------------------------------------------
D|--------------------------------------------------------------------
A|--------------------------------------------------------------------
D|-5---5-5-5-5-5-5-1---1-1-3---3-3-1--------------------------------4-


Second couplet :

G|----------------------------------------------------------------------
D|----------------------------------------------------------3-4-----4-5-
A|----------------------------------------------------------------------
D|-5-5-5-5-5-5-5-8-5-8-9-10-8-10-11-11-12-0-0-0-0-0-0-3-0-3-----4-4-----

Répéter le second couplet 6 fois


Pré-refrain :

G|-12-12-12-12-11-11-11-11-12-12-14-14-15-15-18-18-16-16-16-16-16-16-16-16-------------------------
D|-------------------------------------------------------------------------14-14-14-14-14-14-14-14-
A|-------------------------------------------------------------------------------------------------
D|-------------------------------------------------------------------------------------------------

G|-15-15-15-15-14-14-14-14-15-15-14-14-12-12-11-11-12-12-12-12-12-12-12-12-------------------------
D|-------------------------------------------------------------------------12-12-12-12-12-12-12-12-
A|-------------------------------------------------------------------------------------------------
D|-------------------------------------------------------------------------------------------------

G|-------------------------------------------------
D|-10-10-10-10-10-10-10-10-------------------------
A|-------------------------12-12-12-12-12-12-12-12\
D|-------------------------------------------------


Refrain :

G|-------------------------------------------------------------------------------------------------
D|-------------------------------------------------------------------------------------------------
A|---------------------------------3---3-3-3-3-3-3-3-3-3-3-1-1-1-1---------------------------------
D|-5---5-5-5-5-5-5-5-5-5-5-5-5-5-5---------------------------------3---3-3-3-3-3-3-3-3-3-3-3-3-3-3-

G|-------------------------------------------------------------------------------------------------
D|-------------------------------------------------------------------------------------------------
A|-1---1-1-1-1-1-1-1-1-1-1-0-0-0-0-----------------------------------------------------------------
D|---------------------------------1---1-1-1-1-1-1-2---2-2-2-2-2-2-3---3-3-3-3-3-3-4---4-4-4-4-4-4-

G|---------------------------------------------------
D|---------------------------------------------------
A|---------------------------------1---------------_-
D|-5---5-5-5-5-5-5-1---1-1-3---3-3-------------------


Pont :

G|------------------------------------------------
D|------------------------------------------------
A|-10----------------------------------------9----
D|-------12----13----10----8-----11----12---------

Répéter le pont 10 fois (à la fin de la dixième fois, ne pas jouer le 9 sur la corde de la (A))


Pré-refrain :

G|-12-12-12-12-11-11-11-11-12-12-14-14-15-15-18-18-16-16-16-16-16-16-16-16-------------------------
D|-------------------------------------------------------------------------14-14-14-14-14-14-14-14-
A|-------------------------------------------------------------------------------------------------
D|-------------------------------------------------------------------------------------------------

G|-15-15-15-15-14-14-14-14-15-15-14-14-12-12-11-11-12-12-12-12-12-12-12-12-------------------------
D|-------------------------------------------------------------------------12-12-12-12-12-12-12-12-
A|-------------------------------------------------------------------------------------------------
D|-------------------------------------------------------------------------------------------------

G|-------------------------------------------------------------------------------------------------
D|-10-10-10-10-10-10-10-10-------------------------10-10-10-10-10-10-10-10-------------------------
A|-------------------------12-12-12-12-12-12-12-12-------------------------12-12-12-12-12-12-12-12-
D|-------------------------------------------------------------------------------------------------


Refrain :

G|-------------------------------------------------------------------------------------------------
D|-------------------------------------------------------------------------------------------------
A|---------------------------------3---3-3-3-3-3-3-3-3-3-3-1-1-1-1---------------------------------
D|-5---5-5-5-5-5-5-5-5-5-5-5-5-5-5---------------------------------3---3-3-3-3-3-3-3-3-3-3-3-3-3-3-

G|-------------------------------------------------------------------------------------------------
D|-------------------------------------------------------------------------------------------------
A|-1---1-1-1-1-1-1-1-1-1-1-0-0-0-0-----------------------------------------------------------------
D|---------------------------------1---1-1-1-1-1-1-2---2-2-2-2-2-2-3---3-3-3-3-3-3-4---4-4-4-4-4-4-

G|-------------------------------------------------------------------------------------------------
D|-------------------------------------------------------------------------------------------------
A|---------------------------------1-------------------------------1-------------------------------
D|-5---5-5-5-5-5-5-1---1-1-3---3-3-----------------1---1-1-3---3-3-----------------1---1-1-3---3-3-

G|---------------------------
D|---------------------------
A|-----------1---------------
D|-1---1-1-3---------------4-


Outro (conseil : utilisez votre index pour jouer la corde de ré grave (D du bas) et le majeur pour
jouer les cordes de la (A) et ré aigu (D du haut)) :

G|-----------------------------------------------------------------
D|-----------------------------------------------------------------
A|-----8-----7---7-----6-----5---5-----8-----7---7-----6-----5---5-
D|-5-5---5-5---5---5-5---5-5---5---5-5---5-5---5---5-5---5-5---5---

G|-----------------------------------------------------------------
D|-----------------------------------------------------------------
A|-----8-----7---7-----6-----5---5-----8-----7---7-----6-----5---5-
D|-5-5---5-5---5---5-5---5-5---5---5-5---5-5---5---5-5---5-5---5---

G|-----------------------------------------------------------------
D|-----8-----7---7-----6-----5---5-----8-----7---7-----6-----5---5-
A|-----------------------------------------------------------------
D|-5-5---5-5---5---5-5---5-5---5---5-5---5-5---5---5-5---5-5---5---

G|-------------------------------------------------------------------
D|-----8-----7---7-----6-----5---5-----8-----7---7-----6-----5-5-5-\-
A|-------------------------------------------------------------------
D|-5-5---5-5---5---5-5---5-5---5---5-5---5-5---5---5-5---5-5---------
    
    

2 Commentaires

1 2 3 4 5
3 notes
Notes pour Unnatural Selection Basse Tab - (Muse) | Slappyto : 5/5 sur 3 notes
#2
29/12/2011 23:33:01

merci pour cette tab, je me suis purement éclaté à l'apprendre  

0
0
#1
28/10/2011 09:14:23
tres bon morceau et tres bonne retranscription!
0
0

En Live

Yvesson a commenté le topic [Le Topic du Freepost 7] de Vikie il y a 1 heure
Yvesson, sam et YannGGP ont commenté le topic [La mort de Slappyto?] de kurt il y a 1 heure
Glimmerkajal vient tout juste de rejoindre la communauté Slappyto. Bienvenue ! il y a 2 jours
Wario a commenté le topic [videothèque des sons] de mr gone il y a 1 semaine
Lebollos59 vient tout juste de rejoindre la communauté Slappyto. Bienvenue ! il y a 1 semaine
GregRock vient tout juste de rejoindre la communauté Slappyto. Bienvenue ! il y a 1 semaine
Chris927 vient tout juste de rejoindre la communauté Slappyto. Bienvenue ! il y a 2 semaines
Greeshma vient tout juste de rejoindre la communauté Slappyto. Bienvenue ! il y a 2 semaines