ConnexionConnexionInscription
B E A D G
137 connectés Aller à Sweepyto Guitare

Red Hot Chili Peppers - True Men Don't Kill Coyotes [ Artiste ]

Publié par le
21/10/2011
4185 vues
Moyen 3
http://www.youtube.com/watch?v=0F7M0oqJR08
    
        

Intro :

G|-----------9--7------------------------
D|-----9------------------5-----7---7----
A|-7-X---X-X-------X--5-X---X-X---X---7--
E|--------------------------------------- X2
   S S P S S P  P  S  S S P S S P S P S


Premier Couplet : (si vous maîtrisez déjà le couplet de Coffee Shop, sachez qu'ils sont très similaires rythmiquement, ça peut vous aider à choper le rythme :) )

G|-----------------------------------------------------------------------------------------
D|-----2---2-----------------2---2-----------------2---2-----------------2---2-------------
A|-----------------------------------------------------------------------------------------
E|-0-X---X---0--0--3-5-3-0-X---X---0--0--3-5-3-0-X---X---0--0--3-5-3-0-X---X---0--0--3-5-3-
   S S P S P S  S  S S S S S P S P S  S  S S S S S P S P S  S  S S S S S P S P S  S  S S S 

G|-----------------------------------------------------------------------------------------
D|-----2---2-----------------2---2-----------------2---2-----------------2---2-------------
A|-----------------------------------------------------------------------------------------
E|-0-X---X---0--0--3-5-3-0-X---X---0--0--3-5-3-0-X---X---0--0--3-5-3-0-X---X---0--0--3-5-3-
   S S P S P S  S  S S S S S P S P S  S  S S S S S P S P S  S  S S S S S P S P S  S  S S S 

G|-----4---4-----------------4---4---------------------------------------------------------
D|-------------------------------------------------2---2-----------------2---2-------------
A|-2-X---X---2--2--2-0-0-2-X---X---2--2--2/5-5---------------------------------------------
E|---------------------------------------------0-X---X---0--0--3-5-3-0-X---X---0--0--3-5-3-
   S S P S P S  S  S S S S S P S P S  S  S S S S S P S P S  S  S S S S S P S P S  S  S S S 

Répéter le couplet une deuxième fois !


Refrain :

G|------------------------------------------------------------------------
D|------------------------------------------------------------------------
A|------------------------------------------------------------------------
E|-7--5--7--5--7-5--7--5--7--5--7-5--7--5--7--5--7-5--10--8--10--12-12-12-
   S  S  S  S  S S  S  S  S  S  S S  S  S  S  S  S S  S   S  S   S  S  S


TRUE MEN DON'T !!! KILL COYOTES !!!

G|-----------------------------------------------------------------------------------------
D|-----2---2-----------------2---2-----------------2---2-----------------2---2-------------
A|-----------------------------------------------------------------------------------------
E|-0-X---X---0--0--3-5-3-0-X---X---0--0--3-5-3-0-X---X---0--0--3-5-3-0-X---X---0--0--3-5-3-
   S S P S P S  S  S S S S S P S P S  S  S S S S S P S P S  S  S S S S S P S P S  S  S S S 


Second Couplet :

G|---------------------------------------------
D|-----2---2-----------------2---2-------------
A|---------------------------------------------
E|-0-X---X---0--0--3-5-3-0-X---X---0--0--3-5-3-
   S S P S P S  S  S S S S S P S P S  S  S S S 

G|-----------------------------------------------------------------------------------------
D|-----2---2-----------------2---2-----------------2---2-----------------2---2-------------
A|-----------------------------------------------------------------------------------------
E|-0-X---X---0--0--3-5-3-0-X---X---0--0--3-5-3-0-X---X---0--0--3-5-3-0-X---X---0--0--3-5-3-
   S S P S P S  S  S S S S S P S P S  S  S S S S S P S P S  S  S S S S S P S P S  S  S S S 

G|-----------------------------------------------------------------------------------------
D|-----2---2-----------------2---2-----------------2---2-----------------2---2-------------
A|-----------------------------------------------------------------------------------------
E|-0-X---X---0--0--3-5-3-0-X---X---0--0--3-5-3-0-X---X---0--0--3-5-3-0-X---X---0--0--3-5-3-
   S S P S P S  S  S S S S S P S P S  S  S S S S S P S P S  S  S S S S S P S P S  S  S S S 

G|-----4---4-----------------4---4---------------------------------------------------------
D|-------------------------------------------------2---2-----------------2---2-------------
A|-2-X---X---2--2--2-0-0-2-X---X---2--2--2/5-5---------------------------------------------
E|---------------------------------------------0-X---X---0--0--3-5-3-0-X---X---0--0--3-5-3-
   S S P S P S  S  S S S S S P S P S  S  S S S S S P S P S  S  S S S S S P S P S  S  S S S 


Refrain :

G|------------------------------------------------------------------------
D|------------------------------------------------------------------------
A|------------------------------------------------------------------------
E|-7--5--7--5--7-5--7--5--7--5--7-5--7--5--7--5--7-5--10--8--10--12-12-12-
   S  S  S  S  S S  S  S  S  S  S S  S  S  S  S  S S  S   S  S   S  S  S


TRUE MEN DON'T !!! KILL COYOTES !!!

G|-----------------------------------------------------------------------------------------
D|-----2---2-----------------2---2-----------------2---2-----------------2---2-------------
A|-----------------------------------------------------------------------------------------
E|-0-X---X---0--0--3-5-3-0-X---X---0--0--3-5-3-0-X---X---0--0--3-5-3-0-X---X---0--0--3-5-3-
   S S P S P S  S  S S S S S P S P S  S  S S S S S P S P S  S  S S S S S P S P S  S  S S S 


Solo 1 :

G|-------------------------------
D|-------------------------------
A|-------------------------------
E|-7----5/7----7----5/7--7--7--7-
   S    S      S    S    S  S  S


Troisième Couplet :

G|-----------------------------------------------------------------------------------------
D|-----2---2-----------------2---2-----------------2---2-----------------2---2-------------
A|-----------------------------------------------------------------------------------------
E|-0-X---X---0--0--3-5-3-0-X---X---0--0--3-5-3-0-X---X---0--0--3-5-3-0-X---X---0--0--3-5-3-
   S S P S P S  S  S S S S S P S P S  S  S S S S S P S P S  S  S S S S S P S P S  S  S S S 

G|-----------------------------------------------------------------------------------------
D|-----2---2-----------------2---2-----------------2---2-----------------2---2-------------
A|-----------------------------------------------------------------------------------------
E|-0-X---X---0--0--3-5-3-0-X---X---0--0--3-5-3-0-X---X---0--0--3-5-3-0-X---X---0--0--3-5-3-
   S S P S P S  S  S S S S S P S P S  S  S S S S S P S P S  S  S S S S S P S P S  S  S S S 

G|-----4---4-----------------4---4---------------------------------------------------------
D|-------------------------------------------------2---2-----------------2---2-------------
A|-2-X---X---2--2--2-0-0-2-X---X---2--2--2/5-5---------------------------------------------
E|---------------------------------------------0-X---X---0--0--3-5-3-0-X---X---0--0--3-5-3-
   S S P S P S  S  S S S S S P S P S  S  S S S S S P S P S  S  S S S S S P S P S  S  S S S 


Refrain :

G|------------------------------------------------------------------------
D|------------------------------------------------------------------------
A|------------------------------------------------------------------------
E|-7--5--7--5--7-5--7--5--7--5--7-5--7--5--7--5--7-5--10--8--10--12-12-12-
   S  S  S  S  S S  S  S  S  S  S S  S  S  S  S  S S  S   S  S   S  S  S


TRUE MEN DON'T !!! KILL COYOTES !!!

G|-----------------------------------------------------------------------------------------
D|-----2---2-----------------2---2-----------------2---2-----------------2---2-------------
A|-----------------------------------------------------------------------------------------
E|-0-X---X---0--0--3-5-3-0-X---X---0--0--3-5-3-0-X---X---0--0--3-5-3-0-X---X---0--0--3-5-3-
   S S P S P S  S  S S S S S P S P S  S  S S S S S P S P S  S  S S S S S P S P S  S  S S S 


Solo 2 :

G|-------------------------------
D|-------------------------------
A|-------------------------------
E|-7----5/7----7----5/7--7--7--7-
   S    S      S    S    S  S  S


TRUE MEN DON'T !!! KILL COYOTES !!!

G|-----------------------------------------------------------------------------------------
D|-----2---2-----------------2---2-----------------2---2-----------------2---2-------------
A|-----------------------------------------------------------------------------------------
E|-0-X---X---0--0--3-5-3-0-X---X---0--0--3-5-3-0-X---X---0--0--3-5-3-0-X---X---0--0--3-5-3-
   S S P S P S  S  S S S S S P S P S  S  S S S S S P S P S  S  S S S S S P S P S  S  S S S 

Solo 3 :

G|-------------------------------
D|-------------------------------
A|-------------------------------
E|-5----3/5----5----3/5--5--5--5-
   S    S      S    S    S  S  S


TRUE MEN DON'T !!! KILL COYOTES !!!

G|-----------------------------------------------------------------------------------------
D|-----2---2-----------------2---2-----------------2---2-----------------2---2-------------
A|-----------------------------------------------------------------------------------------
E|-0-X---X---0--0--3-5-3-0-X---X---0--0--3-5-3-0-X---X---0--0--3-5-3-0-X---X---0--0--3-5-3-
   S S P S P S  S  S S S S S P S P S  S  S S S S S P S P S  S  S S S S S P S P S  S  S S S 


Outro :

G|-------9--7------------------------
D|-9------------------5-----7---7----
A|---X-X-------X--5-X---X-X---X---7--
E|-----------------------------------
   P S S P  P  S  S S P S S P S P S
    
    

2 Commentaires

1 2 3 4 5
1 note
Notes pour True Men Don't Kill Coyotes Basse Tab - (Red Hot Chili Peppers) | Slappyto : 5/5 sur 1 note
#2
26/11/2011 13:26:17

 

Retirer
el tenedør

c'est une superbe ligne de basse mais jais commencer il y a environ un mois a jouer je pense que je ne vais pas maitriser se riff de suite malheureusement

 

 Vas-y lentement au début ! Après tu accélère, c'est pas affreux à jouer !
Inspire toi de Coffee Shop pour la ligne de slap, il y a beaucoup de similitudes ! Il existe un cours où tu pourrais voir la version ralentie du Coffee ! C'est comme ça que j'ai fait !  

 

0
+1
#1
25/11/2011 19:33:03

c'est une superbe ligne de basse mais jais commencer il y a environ un mois a jouer je pense que je ne vais pas maitriser se riff de suite malheureusement mais merci pour cette supert tab   

 

0
0

En Live

Yvesson a commenté le topic [Amateurs de photographie, bon-jour/soir !] de cha0s-the0ry il y a 36 minutes
Yvesson a commenté le topic [Le Topic du Freepost 7] de Vikie il y a 44 minutes
Yvesson, sam et YannGGP ont commenté le topic [La mort de Slappyto?] de kurt il y a 45 minutes
Glimmerkajal vient tout juste de rejoindre la communauté Slappyto. Bienvenue ! il y a 2 jours
Wario a commenté le topic [videothèque des sons] de mr gone il y a 1 semaine
Lebollos59 vient tout juste de rejoindre la communauté Slappyto. Bienvenue ! il y a 1 semaine
GregRock vient tout juste de rejoindre la communauté Slappyto. Bienvenue ! il y a 1 semaine
Chris927 vient tout juste de rejoindre la communauté Slappyto. Bienvenue ! il y a 2 semaines
Greeshma vient tout juste de rejoindre la communauté Slappyto. Bienvenue ! il y a 2 semaines