ConnexionConnexionInscription
B E A D G
129 connectés Aller à Sweepyto Guitare

Muse - Uprising [ Artiste ]

Publié par le
28/10/2011
12192 vues
Débutant 2
http://www.youtube.com/watch?v=BTDwIN9oLvY
    
        

Le riff d'intro + d'outro + de transition entre les couplets, les refrains et le solo :

G|-------------------------------------------------
D|----12----12----12----12----12----12----12----12-
A|-------------------------------------------------
E|-10----10----10----10----10----10----10----10---- X2

(Lors de l'outro, finir par un 10 corde de mi (E) suivi d'un slide vers le bas)


Le riff PRINCIPAL des couplets + des refrains + du solo :

G|-------------------------------------------------
D|----12----12----12----12----12----12----12----12-
A|-------------------------------------------------
E|-10----10----10----10----10----10----10----10----

G|----12----12----12----12----10---10----13----13-
D|------------------------------------------------
A|-10----10----10----10----8-----8----11----11----
E|------------------------------------------------

G|----14----14----14----14----14----14----14----14-
D|-------------------------------------------------
A|-12----12----12----12----12----12----12----12----
E|-------------------------------------------------

G|----12----12----12----12----10---10-------------
D|--------------------------------------11---11---
A|-10----10----10----10----8-----8----------------
E|------------------------------------9----9------


Fil à la fin du solo (je suis pas sûr, je l'ai retrouvé d'oreille) :

G|----------------------------------------------------------------------
D|-12-12-12-12-12-12-12-12-12-12-12-12-12-10----10----------------------
A|-------------------------------------------12----12-10-12-10-8-10-8---
E|--------------------------------------------------------------------8- Puis on enchaîne direct 
sur le riff du refrain
    
    

0 Commentaires : réagissez !

1 2 3 4 5
3 notes
Notes pour Uprising Basse Tab - (Muse) | Slappyto : 4/5 sur 3 notes
Aucun commentaire !

En Live

Wario a commenté le topic [videothèque des sons] de mr gone il y a 4 jours
Lebollos59 vient tout juste de rejoindre la communauté Slappyto. Bienvenue ! il y a 5 jours
GregRock vient tout juste de rejoindre la communauté Slappyto. Bienvenue ! il y a 6 jours
Chris927 vient tout juste de rejoindre la communauté Slappyto. Bienvenue ! il y a 1 semaine
Greeshma vient tout juste de rejoindre la communauté Slappyto. Bienvenue ! il y a 1 semaine
Ludo ZEFISH vient tout juste de rejoindre la communauté Slappyto. Bienvenue ! il y a 1 semaine
Nicobass1793 vient tout juste de rejoindre la communauté Slappyto. Bienvenue ! il y a 1 semaine
Indonesiae vient tout juste de rejoindre la communauté Slappyto. Bienvenue ! il y a 1 semaine
Grandbill a commenté la tablature de Coup_de_pelle il y a 1 semaine