ConnexionConnexionInscription
B E A D G
160 connectés Aller à Sweepyto Guitare

Sting - Moon over Bourbon Street [ Artiste ]

Publié par le
28/10/2011
7950 vues
Débutant 1
http://www.youtube.com/watch?v=5i_0PkOqLKA
    
        

Moon over Bourbon Street                                                      
Sting
The dream of the blue turtle

(fichier pdf & guitar pro 5 http://junk1000.free.free.fr/menutabs.html)

  Couplet 1
G|----------------5---|--------------------|----------------5---|--------------------|------6----5---------|
D|-5------------------|-3--------------3---|-5------------------|--------------------|---------------------|
A|-----------3--------|------3-------------|------4----3--------|-8----7----6----5---|-4--------------3----|
E|------3-------------|-----------1--------|--------------------|--------------------|---------------------|


-----------------5---|--------------------|------6----5--------|----------------5---|---------------------|
--3----5----6--------|----------------5---|--------------------|-5------------------|-3----5----6----3----|
---------------------|-5----5-------------|-4--------------3---|-----------3--------|---------------------|
---------------------|-----------3--------|--------------------|------3-------------|---------------------|


-----------------5---|--------------------|--------------------|--------------------|------6----5---------|
--5------------------|--------------------|------6----5--------|--------------------|---------------------|
------------3--------|-8----7----6----5---|-4--------------3---|-8----7----6----5---|-4--------------3----|
-------3-------------|--------------------|--------------------|--------------------|---------------------|


  Refrain                                                                                      
G|--------------------|--------------------|--------------------|---------------------|
D|--------------------|-3------------------|--------------------|-3-------------------|
A|-----------1----3---|-----------1----3---|-----------1----3---|-----------1----3----|
E|-1----4-------------|------4-------------|-1----4-------------|------4--------------|



  Couplet 2
G|----------------5---|--------------------|----------------5---|----------------5---|------6----5---------|
D|------5-------------|--------------------|------5-------------|-3----5----6--------|---------------------|
A|-----------3--------|-8----7----6----5---|-----------3--------|--------------------|-4--------------3----|
E|-3------------------|--------------------|-3------------------|--------------------|---------------------|


---------------------|------7-------------|------6----5--------|----------------5---|---------------------|
--3----5----6----3---|-----------5--------|--------------------|-5----5-------------|-3----5----6----3----|
---------------------|-5------------------|-4--------------3---|-----------3--------|---------------------|
---------------------|----------------3---|--------------------|--------------------|---------------------|


-----------------5---|--------------------|------6----5--------|--------------------|------6----5---------|
--5------------------|--------------------|--------------------|--------------------|---------------------|
-------4----3--------|-8----7----6----5---|-4--------------3---|-8----7----6----5---|-4--------------3----|
---------------------|--------------------|--------------------|--------------------|---------------------|


Refrain
Solo Saxo (silence de 6 mesures)


  Couplet 3
G|----------------5---|--------------------|----------------5---|--------------------|------6----5---------|
D|------5-------------|--------------------|------5-------------|-3----5----6----3---|---------------------|
A|-----------3--------|-8----7----6----5---|-----------3--------|--------------------|-4--------------3----|
E|-3------------------|--------------------|-3------------------|--------------------|---------------------|


-------5---------5---|------7-------------|------6----5--------|----------------5---|---------------------|
---------------------|-----------5--------|--------------------|------5-------------|---------------------|
--3---------3--------|-5------------------|-4--------------3---|-----------3--------|-8----7----6----5----|
---------------------|----------------3---|--------------------|-3------------------|---------------------|


-----------------5---|--------------------|------6----5--------|--------------------|------6----5---------|
-------5-------------|--------------------|--------------------|--------------------|---------------------|
------------3--------|-8----7----6----5---|-4--------------3---|-8----7----6----5---|-4--------------3----|
--3------------------|--------------------|--------------------|--------------------|---------------------|

    
    

1 Commentaire

1 2 3 4 5
3 notes
Notes pour Moon Over Bourbon Street Basse Tab - (Sting) | Slappyto : 4/5 sur 3 notes
#1
22/11/2011 10:55:38

Excellent !! J'adore cette chanson, et particulièrement la ligne de basse qui porte bien le morceau !

 

Mais pas si évident à reproduire, je pense (est-ce bien pour Débutant 1 ??).

 

Pour le refrain, je me demande si ce n'est pas 4x la 1ère mesure... A voir (ou plutôt à écouter...).

0
0

En Live

Wario a commenté le topic [videothèque des sons] de mr gone il y a 4 jours
Lebollos59 vient tout juste de rejoindre la communauté Slappyto. Bienvenue ! il y a 5 jours
GregRock vient tout juste de rejoindre la communauté Slappyto. Bienvenue ! il y a 6 jours
Chris927 vient tout juste de rejoindre la communauté Slappyto. Bienvenue ! il y a 1 semaine
Greeshma vient tout juste de rejoindre la communauté Slappyto. Bienvenue ! il y a 1 semaine
Ludo ZEFISH vient tout juste de rejoindre la communauté Slappyto. Bienvenue ! il y a 1 semaine
Nicobass1793 vient tout juste de rejoindre la communauté Slappyto. Bienvenue ! il y a 1 semaine
Indonesiae vient tout juste de rejoindre la communauté Slappyto. Bienvenue ! il y a 1 semaine
Grandbill a commenté la tablature de Coup_de_pelle il y a 1 semaine