ConnexionConnexionInscription
B E A D G
153 connectés Aller à Sweepyto Guitare

Calogero - Prendre Racine [ Artiste ]

Publié par le
30/11/2011
7006 vues
Moyen 1
    
        

Difficulté : 1/10
					
[PRE REFRAIN]

G|---------------------------------------------
D|-----------------1(x8)-2(x8)---------13(x13)-
A|-4/11(x8)-13(x8)-------------4(x24)----------
E|---------------------------------------------

[REFRAIN]

G|---------------------------------------------------------------------
D|---------------------------------------------------------------------
A|-------1(x8)-2(x8)-------4(x24)-16(x5)-------1(x8)-2(x8)-------4(x25)
E|-4(x8)-------------0(x8)---------------4(x8)-------------0(x8)-------

[REFRAIN DE LA FIN]

G|----------------------------------------------------------------------------
D|----------------------------------------------------------------------------
A|-------1(x8)-2(x8)-------4(x24)-16(x5)-------1(x8)-2(x8)-------4(x24)-16(x5)     x2
E|-4(x8)-------------0(x8)---------------4(x8)-------------0(x8)--------------

G|---------------------------------------------------------------------
D|---------------------------------------------------------------------
A|----------1111111-2222222---------4444444-6666666-7777777-467--------
E|-4444444-----------------0000000-------------------------------------

G|-------------------------------
D|-------------------------------
A|-------1(x8)-2(x8)-------4(x25)
E|-4(x8)-------------0(x8)-------


    
    

1 Commentaire

1 2 3 4 5
1 note
Notes pour Prendre Racine Basse Tab - (Calogero) | Slappyto : 4/5 sur 1 note

En Live

Yvesson a commenté le topic [Amateurs de photographie, bon-jour/soir !] de cha0s-the0ry il y a 52 minutes
Yvesson a commenté le topic [Le Topic du Freepost 7] de Vikie il y a 1 heure
Yvesson, sam et YannGGP ont commenté le topic [La mort de Slappyto?] de kurt il y a 1 heure
Glimmerkajal vient tout juste de rejoindre la communauté Slappyto. Bienvenue ! il y a 2 jours
Wario a commenté le topic [videothèque des sons] de mr gone il y a 1 semaine
Lebollos59 vient tout juste de rejoindre la communauté Slappyto. Bienvenue ! il y a 1 semaine
GregRock vient tout juste de rejoindre la communauté Slappyto. Bienvenue ! il y a 1 semaine
Chris927 vient tout juste de rejoindre la communauté Slappyto. Bienvenue ! il y a 2 semaines
Greeshma vient tout juste de rejoindre la communauté Slappyto. Bienvenue ! il y a 2 semaines