ConnexionConnexionInscription
B E A D G
147 connectés Aller à Sweepyto Guitare

Noir Désir - Un Jour en France [ Artiste ]

Publié par le
30/11/2011
25533 vues
Débutant 3
    
        

G ----------------|----------------|----------------|----------------|
D  ----------------|----------------|----------------|----------------|
A  ----------------|5-5-5-5---------|----------------|----------------|
E  6-6-6-6-5-5-5-5-|--------5-5-5-5-|6-6-6-6-5-5-5-5-|1-1-1-1-1-1-1-5-|
                                                                   

G ----------------|----------------|----------------|----------------|
D  ----------------|----------------|----------------|----------------|
A  ----------------|5-5-5-5---------|----------------|5-5-5-5-5-5-5---|
E  6-6-6-6-5-5-5-5-|--------5-5-5-5-|6-6-6-6-1-1-1-1-|--------------5-|

ou bien sur une corde :

G ----------------|--------------------|----------------|----------------|
D  ----------------|--------------------|----------------|----------------|
A  ----------------|--------------------|----------------|----------------|
E  6-6-6-6-5-5-5-5-|10-10-10-10-5-5-5-5-|6-6-6-6-5-5-5-5-|1-1-1-1-1-1-1-5-|
                                                                   

G ----------------|--------------------|----------------|-----------------------|
D  ----------------|--------------------|----------------|-----------------------|
A  ----------------|--------------------|----------------|-----------------------|
Ei  6-6-6-6-5-5-5-5-|10-10-10-10-5-5-5-5-|6-6-6-6-1-1-1-1-|10-10-10-10-10-10-10-5-|


A jouer en boucle ! ce morceau et top vraiment faites vous plaisir !!! 
    
    

4 Commentaires

1 2 3 4 5
4 notes
Notes pour Un Jour En France Basse Tab - (Noir Désir) | Slappyto : 4/5 sur 4 notes
#4
07/05/2012 18:59:18

Avez vous un réglage à conseiller ? parce que j'arrive pas à imiter le son :/ merci d'avance !

0
0
#3
14/12/2011 18:37:09

oui tu a reson c comme ça que je la joue

 

0
0
#2
14/12/2011 16:50:30


le jouer uniquement sur la corde de Mi permet d'ajouter les effets de slides vers le Ré aigu, la seconde version est plus sympa à mon avis  

0
0

En Live

Wario a commenté le topic [videothèque des sons] de mr gone il y a 2 jours
Lebollos59 vient tout juste de rejoindre la communauté Slappyto. Bienvenue ! il y a 3 jours
GregRock vient tout juste de rejoindre la communauté Slappyto. Bienvenue ! il y a 3 jours
Chris927 vient tout juste de rejoindre la communauté Slappyto. Bienvenue ! il y a 1 semaine
Greeshma vient tout juste de rejoindre la communauté Slappyto. Bienvenue ! il y a 1 semaine
Ludo ZEFISH vient tout juste de rejoindre la communauté Slappyto. Bienvenue ! il y a 1 semaine
Nicobass1793 vient tout juste de rejoindre la communauté Slappyto. Bienvenue ! il y a 1 semaine
Indonesiae vient tout juste de rejoindre la communauté Slappyto. Bienvenue ! il y a 1 semaine
Grandbill a commenté la tablature de Coup_de_pelle il y a 1 semaine