ConnexionConnexionInscription
B E A D G
145 connectés Aller à Sweepyto Guitare

Isaac Hayes - That Loving Feeling [ Artiste ]

Publié par le
11/12/2010
11068 vues
Débutant 1
http://www.youtube.com/watch?v=fdmCO_8-PfA
    
        

*********************************
Isaac Hayes : That Loving Feeling
*********************************

Intro :
 |: 12x           :|
G|--------|--------|
D|--------|--------|
A|33-33--3|-3333---|
E|--------|--------|

Verse :
 |: 2x                                                                  :|
G|--------|--------|--------|--------|--------|--------|--------|--------|
D|--------|--------|--------|--------|--------|--------|--------|--------|
A|33-33--3|-3333---|--------|--------|--------|--------|--------|--------|
E|--------|--------|33-33--3|-3333---|11-11--1|-1111---|33-33--3|-3333---|

Chorus :
 |: 3x                              :|
G|--------|--------|--------|--------|--------|--------|--------|--------|
D|--------|--------|--------|--------|--------|--------|--------|--------|
A|55-55---|--------|33-33---|--------|55-55---|--------|--------|--------|
E|-------3|-3333---|-----345|-55555--|-------3|-3333---|3-------|--------|

Bridge
 |: 4x            :|
G|--------|--------|
D|--------|--------|
A|33-33--3|-3333---|
E|--------|--------|

Verse
Chorus
Verse
Chorus
Verse
Chorus

Outro :
 |: 5x (fading out)
G|--------|--------|--------|--------|--------|--------|--------|--------|
D|--------|--------|--------|--------|--------|--------|--------|--------|
A|33-33--3|-3333---|33-33--3|-3333---|33-33--3|-3333---|33-33--3|-3333--3|
E|--------|--------|--------|--------|--------|--------|--------|--------|
                                                                        
                                                                        :|
G|--------|--------|--------|--------|--------|--------|--------|--------|
D|--------|--------|--------|--------|--------|--------|--------|--------|
A|---33--3|-3333---|33-33--3|-3333---|33-33--3|-3333---|33-33--3|-3333---|
E|--------|--------|--------|--------|--------|--------|--------|--------|

Visit http://basse.over-blog.com for other bass tabs.
Visitez http://basse.over-blog.com pour d'autres tablatures pour basse.

    
    

5 Commentaires

1 2 3 4 5
5 notes
Notes pour That Loving Feeling Basse Tab - (Isaac Hayes) | Slappyto : 5/5 sur 5 notes
#5
13/10/2012 12:48:27

J'adore , en tant que débutant , je me "chauffe"avec ça !! très cool !!   

0
0
#4
23/01/2012 19:54:13

le chorus ai pas facile a rentrer mais avec de l antrenement ça passe cool le morcaux

 

0
0
#3
05/09/2011 22:07:19
Ces bon pour apprendre le rytme et conter ces temps ces pas trop dure pour les debutant.  
1
0
#2
29/12/2010 19:49:14
Parfait pour commencer !
0
+1
#1
11/12/2010 18:06:52
Simple mais groovy, ça c'est de la ligne de basse  
0
0

En Live

Yvesson a commenté le topic [Amateurs de photographie, bon-jour/soir !] de cha0s-the0ry il y a 12 minutes
Yvesson a commenté le topic [Le Topic du Freepost 7] de Vikie il y a 20 minutes
Yvesson, sam et YannGGP ont commenté le topic [La mort de Slappyto?] de kurt il y a 21 minutes
Glimmerkajal vient tout juste de rejoindre la communauté Slappyto. Bienvenue ! il y a 2 jours
Wario a commenté le topic [videothèque des sons] de mr gone il y a 1 semaine
Lebollos59 vient tout juste de rejoindre la communauté Slappyto. Bienvenue ! il y a 1 semaine
GregRock vient tout juste de rejoindre la communauté Slappyto. Bienvenue ! il y a 1 semaine
Chris927 vient tout juste de rejoindre la communauté Slappyto. Bienvenue ! il y a 2 semaines
Greeshma vient tout juste de rejoindre la communauté Slappyto. Bienvenue ! il y a 2 semaines