ConnexionConnexionInscription
B E A D G
137 connectés Aller à Sweepyto Guitare

U2 - New Year' s Day [ Artiste ]

Publié par le
16/12/2011
9731 vues
Moyen 3
    
        

* = jouer 16 fois

[Intro]
G------------------------------------------------|
D-------9---------1----------4--------------4----|
A-11-11---11-2-2---2-6-6-6---6--6-6-0-6-6---6-|
E------------------------------------------------|

G----------------------|----------------|
D-------9---------1----|----------------|
A-11-11---11-2-2---2-|9*-7*-11*-9*-7*-|
E----------------------|----------------|

[Couplet]
G------------------------------------------------| 
D-------9---------1----------4--------------4----|  X6
A-11-11---11-2-2---2-6-6-6---6--6-6-0-6-6---6-|  
E------------------------------------------------|

[Refrain]
G--------------|
D--------------|
A-9*-11*-9*-7*-|
E--------------|

[Couplet]
G------------------------------------------------| 
D-------9---------1----------4--------------4----|  X5
A-11-11---11-2-2---2-6-6-6---6--6-6-0-6-6---6-|  
E------------------------------------------------|

[Refrain]
G--------------|
D--------------| x2
A-9*-11*-9*-7*-|
E--------------|

[Pont]
G------------------------------------------------|
D-------9---------1----------4--------------4----|
A-11-11---11-2-2---2-6-6-6---6--6-6-0-6-6---6-|
E------------------------------------------------|

G----------------------|----------------|
D-------9---------1----|----------------|
A-11-11---11-2-2---2-|9*-7*-11*-9*-7*-|
E----------------------|----------------|

[Solo Guitare]
G------------------------------------------------|
D-------9---------1----------4--------------4----| x5
A-11-11---11-2-2---2-6-6-6---6--6-6-0-6-6---6-|
E------------------------------------------------|

[Outro]
G--------------|
D--------------| x3
A-9*-11*-9*-7*-|
E--------------|
    
    

0 Commentaires : réagissez !

1 2 3 4 5
2 notes
Notes pour New Year' S Day Basse Tab - (U2) | Slappyto : 4/5 sur 2 notes
Aucun commentaire !

En Live

Wario a commenté le topic [videothèque des sons] de mr gone il y a 5 jours
Lebollos59 vient tout juste de rejoindre la communauté Slappyto. Bienvenue ! il y a 5 jours
GregRock vient tout juste de rejoindre la communauté Slappyto. Bienvenue ! il y a 6 jours
Chris927 vient tout juste de rejoindre la communauté Slappyto. Bienvenue ! il y a 1 semaine
Greeshma vient tout juste de rejoindre la communauté Slappyto. Bienvenue ! il y a 1 semaine
Ludo ZEFISH vient tout juste de rejoindre la communauté Slappyto. Bienvenue ! il y a 1 semaine
Nicobass1793 vient tout juste de rejoindre la communauté Slappyto. Bienvenue ! il y a 1 semaine
Indonesiae vient tout juste de rejoindre la communauté Slappyto. Bienvenue ! il y a 1 semaine
Grandbill a commenté la tablature de Coup_de_pelle il y a 1 semaine