ConnexionConnexionInscription
B E A D G
179 connectés Aller à Sweepyto Guitare

Shalamar - A Night To Remember [ Artiste ]

Publié par le
16/12/2011
6614 vues
Moyen 1
http://www.youtube.com/watch?v=guB_jQkCzCo
    
        

**********************************
 * Shalamar : A Night to Remember *
 **********************************

 mesure = 2/4, tempo = 110, subdivision (-) = double-croche
 suggestion de réglages :
     micro : 50% manche / 50% chevalet
     EQ = 100% bass / 50% mid / 50% treble

 Intro :
  |: 7x            :|               
D|--------|--------|--------|--------|
A|--------|--------|--------|--------|
E|--------|--------|--------|----53--|
B|--------|--------|--------|-------1|

 Refrain :
 D|--------|--------|--------|--------|--------|--------|--------|--------|
A|--------|--------|--------|--------|--------|--------|--------|--------|
E|--------|--------|5------5|5-5-----|8------8|--------|6------6|6-6-----|
B|3------3|3-3---3-|--------|--------|--------|6-6---6-|--------|--------|

D|--------|--------|--------|--------|--------|--------|--------|--------|
A|--------|--------|--------|--------|--------|--------|--------|--------|
E|--------|--------|5------5|5-5-----|8------8|--------|6------6|6-------|
B|3------3|3-3-----|--------|--------|--------|6-6-----|--------|--------|

Couplet :
 D|--------|--------|--------|------5-|--------|--------|--------|--------|
A|--------|--------|--------|--------|--------|--------|--------|-/8-5---|
E|6------6|6-6---6-|5------5|5----5-5|6------6|6-6---6-|5------5|5-----5-|
B|--------|--------|--------|--------|--------|--------|--------|--------|

D|--------|--------|--------|------5-|--------|--------|--------|--------|
A|--------|--------|--------|--------|--------|--------|--------|--------|
E|6------6|6-6---6-|5------5|5----5-5|6-------|7-------|8-------|--------|
B|--------|--------|--------|--------|--------|--------|--------|--------|

D|--------|--------|--------|--------|--------|--------|
A|--------|--------|--------|--------|--------|--------|
E|8-8-8-8-|8-+-----|--------|--------|--------|----53--|
B|--------|--------|--------|--------|--------|-------1|

 Refrain
 Couplet

 Refrain 2 :
 D|--------|--------|--------|--------|--------|--------|--------|--------|
 A|--------|--------|--------|--------|--------|--------|--------|--------|
 E|--------|--------|5------5|5-5---5-|8------8|--------|6------6|6-6---6-|
 B|3------3|3-3---3-|--------|--------|--------|6-6---6-|--------|--------|

 D|--------|--------|--------|--------|--------|--------|--------|--------|
 A|--------|--------|--------|--------|--------|--------|--------|--------|
 E|--------|--------|5------5|5-5---5-|8------8|--------|6------6|6-6-6---|
 B|3------3|3-3---3-|--------|--------|--------|6-6---6-|--------|--------|

 Pont :
 D|--------|--------|--------|--------|--------|--------|--------|--------|--------|--------|
 A|--------|6-6-----|--------|--------|--------|--------|--------|--------|--------|--------|
 E|6------6|------7-|-------7|7-7-----|6------6|6-6-----|9------9|--------|7-------|7-9-A-B-|
 B|--------|--------|--------|--------|--------|--------|--------|7-7---7-|-------7|--------|

 D|--------|--------|--------|--------|--------|--------|--------|--------|
 A|--------|--------|--------|--------|--------|--------|--------|--------|
 E|--------|--------|6------6|6-6-----|9------9|--------|7-------|7-9-A-B-|
 B|4------4|4-4---4-|--------|--------|--------|7-7---7-|-------7|--------|

 D|--------|--------|--------|--------|--------|--------|--------|--------|
 A|+-------|--------|--------|--------|--------|--------|--------|--------|
 E|--------|--------|6------6|6-6-----|9------9|--------|7-------|7-9-A-B-|
 B|-------4|4-4-----|--------|--------|--------|7-7---7-|-------7|--------|

  |: 6x                                                 |1-2-3-4         :|5               :|6
 D|--------|--------|--------|--------|--------|--------|--------|--------|------4/|6---4---|--------|--------|
 A|+-------|--------|--------|--------|--------|--------|--------|--------|----6---|-----4--|--------|--------|
 E|--------|--------|6------6|6-6-----|9------9|--------|7-------|7-9-A-B-|7-------|--------|7-------|7-9-A-B-|
 B|-------4|4-4---4-|--------|--------|--------|7-7---7-|-------7|--------|--------|------4-|-------7|-7-7-7--|

  |: 7x            :|
 D|--------|--------|--------|--------|--------|--------|--------|--------|--------|--------|--------|64------|
 A|+-------|--------|--------|--------|--------|--------|--------|--------|--------|--------|--------|--6---6-|
 E|--------|--------|--------|--------|--------|--------|6------6|6-6-----|9------9|--------|7------7|--------|
 B|--------|--------|--------|------4-|+------4|4-4-----|--------|--------|--------|7-7---7-|--------|---4----|

  |: 3x                                                 |1               :|2               :|3
 D|--------|--------|--------|--------|--------|--------|--------|--------|--------|--------|--------|--------|
A|+-------|--------|--------|--------|--------|--------|--------|--------|--------|--------|--------|--------|
E|--------|--------|6------6|6-6-----|9------9|--------|7-------|7-9-A-B-|7-------|7-7---B-|7-------|7-------|
B|-------4|4-4---4-|--------|--------|--------|7-7---7-|-------7|-7-7-7--|-------7|--------|-------7|--------|

Couplet 2 :
 D|--------|--------|--------|------6-|--------|--------|--------|--------|
A|--------|--------|--------|--------|--------|--------|--------|-/9-6---|
E|7------7|7-7---7-|6------6|6----6-6|7------7|7-7---7-|6------6|6-----6-|
B|--------|--------|--------|--------|--------|--------|--------|--------|

D|--------|--------|--------|------6-|--------|--------|--------|--------|
A|--------|--------|--------|--------|--------|--------|--------|--------|
E|7------7|7-7---7-|6------6|6----6-6|7-------|8-------|9-------|--------|
B|--------|--------|--------|--------|--------|--------|--------|--------|

D|--------|--------|--------|--------|--------|--------|
A|--------|--------|--------|--------|--------|--------|
E|9-9-9-9-|9-+-----|--------|--------|--------|----64--|
B|--------|--------|--------|--------|--------|-------2|

 Refrain 3 :
 D|--------|--------|--------|--------|--------|--------|--------|--------|
A|--------|--------|--------|--------|--------|--------|--------|--------|
E|--------|--------|6------6|6-6-----|9------9|--------|7-------|7-9-A-B-|
B|4------4|4-4-----|--------|--------|--------|7-7---7-|-------7|--------|

                                                                   P
 D|--------|--------|--------|--------|--------|--------|--------|86---P--|
A|+-------|--------|--------|--------|--------|--------|--------|----86--|
E|--------|--------|6------6|6-6-----|9------9|--------|7-------|--------|
B|-------4|4-4---4-|--------|--------|--------|7-7---7-|--------|--------|

   >
D|--------|--------|--------|--------|--------|--------|--------|--------|
A|--------|--------|--------|--------|--------|--------|--------|--------|
E|--------|--------|6------6|6-6-----|9------9|--------|7-------|7-9-A-B-|
B|4------4|4-4-----|--------|--------|--------|7-7---7-|--------|--------|

 =========================================================================================================================
Légende : A=10,B=11,C=12,...
           + = étouffer la corde (stopper le son)
           / = glissé vers le haut
           P = Pull Off (de la note qui se trouve juste sous le P)
           |: Nx :| = répéter N fois le passage entre |: et :|
           |: 2x  |1    :|2     | = lors du premier passage, jouer 1, lors du second passage, jouer 2
           > = en diminuant le volume
 =========================================================================================================================

 Visitez http://www.ilovetabs.com pour d'autres tablatures "+R" pour guitare basse.


    
    

0 Commentaires : réagissez !

1 2 3 4 5
0 notes
Aucun commentaire !

En Live

Cell et yvesson ont commenté le topic [Le Topic du Freepost 7] de Vikie il y a 2 jours
Yvesson, sam et YannGGP ont commenté le topic [La mort de Slappyto?] de kurt il y a 3 jours
Glimmerkajal vient tout juste de rejoindre la communauté Slappyto. Bienvenue ! il y a 5 jours
Wario a commenté le topic [videothèque des sons] de mr gone il y a 1 semaine
Lebollos59 vient tout juste de rejoindre la communauté Slappyto. Bienvenue ! il y a 1 semaine
GregRock vient tout juste de rejoindre la communauté Slappyto. Bienvenue ! il y a 1 semaine
Chris927 vient tout juste de rejoindre la communauté Slappyto. Bienvenue ! il y a 2 semaines