ConnexionConnexionInscription
B E A D G
153 connectés Aller à Sweepyto Guitare

Bob Marley - One Love [ Artiste ]

Publié par le
16/12/2011
14714 vues
Débutant 4
    
        

*************************
 * Bob Marley : One Love *
 *************************

 mesure = 12/8, tempo = 160, subdivision (-) = croche
 suggestion de réglages :
     micro : 100% manche
     EQ = 100% bass / 0% mid / 0% treble

 Intro :
 G|------------|------------|------------|------------|------------|------------|------------|------------|
D|------------|------------|------------|------------|------------|------------|------------|8--+--------|
A|---------8--|------------|---6--8--+--|---6--8--+--|---5--6--5--|---------6--|8--+--------|------------|
E|6--6--+-----|6--6--+-----|8-----------|8-----------|6-----------|6--+--------|------8--+--|------------|

Refrain :
  |: 2x                                                                                      |1          :|
 G|------------|------------|------------|------------|------------|------------|------------|------------|
 D|------------|------------|------------|------------|------------|------------|------------|------------|
 A|---------8--|------------|---6--8--+--|---6--8--+--|---5--6--5--|---------6--|8--+--------|---------8--|
 E|6--6--+-----|6--6--+-----|8-----------|8-----------|6-----------|6--+--------|------8--+--|6--+--------|

  |2
 G|------------|------------|------------|------------|------------|
 D|------------|------------|------------|------------|------------|
 A|------------|6-66--6--6--|---------6--|8--+--------|------------|
 E|6--+--------|------------|6--+--------|------8--+--|6--+--------|

 Couplet :
 G|------------|------------|------------|------------|------------|------------|------------|------------|
 D|---------3--|5-----------|------------|------------|---------3--|5-----------|------------|------------|
 A|------5-----|------------|6-66--6--6--|------------|------5-----|------------|---6--8--+--|------------|
 E|6--6--------|---3--+-----|------------|6--+--------|6--6--------|---3--+-----|--8---------|6--+--------|

 G|------------|------------|------------|------------|------------|------------|------------|------------|
 D|---------3--|5-----------|------------|------------|---------3--|5-----------|------------|------------|
 A|------5-----|------------|6-66--6-66--|------------|------5-----|------------|---6--8--+--|--------8---|
 E|6--6--------|---3--+-----|------------|6--+--------|6--6--------|---3--+-----|--8---------|6--+--------|

 Refrain

 Couplet 2 :
 G|------------|------------|------------|------------|------------|------------|------------|------------|
 D|---------3--|5-----------|------------|------------|---------3--|5-----------|------------|------------|
 A|------5-----|------------|6-66--6--6--|------------|------5-----|------------|---6--8--+--|------------|
 E|6--6--------|---3--+-----|------------|6--+--------|6--6--------|---3--+-----|--8---------|6--+--------|

 G|------------|------------|------------|------------|------------|------------|------------|------------|
 D|---------3--|5-----------|------------|------------|---------3--|5-----------|------------|------------|
 A|------5-----|------------|---6-66-66--|------------|------5-----|------------|---6--8--+--|--------8---|
 E|6--6--------|---3--+-----|------------|6--+--------|6--6--------|---3--+-----|--8---------|6--+--------|

 Refrain 2 :
  |: 2x                                                                                      |1          :|
 G|------------|------------|------------|------------|------------|------------|------------|------------|
 D|------------|------------|------------|------------|------------|------------|------------|------------|
 A|---------8--|------------|---8--8-8-+-|---8--8-8-+-|---5--6--5--|---------6--|8--+--------|---------8--|
 E|6--6--+-----|6--6--+-----|------------|------------|6-----------|6--+--------|------8--+--|6--+--------|

  |2           |: 3x >                                            :|
 G|------------|------------|------------|------------|------------|
D|------------|------------|------------|------------|------------|
A|------------|6-66--6-66--|---------6--|8--+--------|------------|
E|6--+--------|------------|6--+--------|------8--+--|6--+--------|

 =========================================================================================================================
Légende : + = étouffer la corde (stopper le son)
           |: Nx :| = répéter N fois le passage entre |: et :|
           |: 2x  |1    :|2     | = lors du premier passage, jouer 1, lors du second passage, jouer 2
           > = en diminuant le volume
 =========================================================================================================================

 Visitez http://www.ilovetabs.com pour d'autres tablatures "+R" pour guitare basse.


    
    

1 Commentaire

1 2 3 4 5
1 note
Notes pour One Love Basse Tab - (Bob Marley) | Slappyto : 1/5 sur 1 note
#1
12/08/2019 08:35:21
peut on imprimer les tabs?   merci
0
0

En Live

Wario a commenté le topic [videothèque des sons] de mr gone il y a 4 jours
Lebollos59 vient tout juste de rejoindre la communauté Slappyto. Bienvenue ! il y a 5 jours
GregRock vient tout juste de rejoindre la communauté Slappyto. Bienvenue ! il y a 6 jours
Chris927 vient tout juste de rejoindre la communauté Slappyto. Bienvenue ! il y a 1 semaine
Greeshma vient tout juste de rejoindre la communauté Slappyto. Bienvenue ! il y a 1 semaine
Ludo ZEFISH vient tout juste de rejoindre la communauté Slappyto. Bienvenue ! il y a 1 semaine
Nicobass1793 vient tout juste de rejoindre la communauté Slappyto. Bienvenue ! il y a 1 semaine
Indonesiae vient tout juste de rejoindre la communauté Slappyto. Bienvenue ! il y a 1 semaine
Grandbill a commenté la tablature de Coup_de_pelle il y a 1 semaine