ConnexionConnexionInscription
B E A D G
127 connectés Aller à Sweepyto Guitare

Jamiroquai - Smoke and mirrors [ Artiste ]

Publié par le
01/01/2012
10710 vues
Moyen 3
http://www.youtube.com/watch?v=bOlED4z6eyg
    
        

Smoke and Mirrors
Jamiroquai

Transcription au format guitar pro et pdf -> http://junk1000.free.free.fr/menutabs.html
Un bassiste qui assure sur le tube http://www.youtube.com/watch?v=dkqxjMleAgA
	Intro jouer 2X
G||----------------------------|--------------------|---------------------------|-----------------------|
D||----------------------------|--------------------|---------------------------|----8---8----------8---|
A||----------------------------|--------------------|---------------------------|-----------------------|
E||--3-3--3-----x-4-4--4-----x-|--6-6--6--------1---|--3-3--3-----x-4-4--4----x-|--6---6----------------|


							Fin 1
--------------------------|--------------|	|----------------------------|---------------------------|
--------------------------|--------------| 	|----------------------------|-------------8-6-----------|
--------------------------|--------------|	|----------------------------|-----------------8-6-4-----|
--3-3--3-----x-4-4--4---x-|--6-6--6----x-|	|--3-3--3-----x-4-4--4-----x-|-6-6-4-6---------------6-4-|

							Fin 2
						|----------------------------|----8-6---6-6-----5-5s-6---|
					   	|------------------3-6-6---8-|--------8------------------|
						|----------------------------|---------------------------|
						|-3-3--3---x-4-4-------------|---------------------------|


----------------------------|-------------------------|----------------------------|
----------------------------|-------------------------|----------------------------|
----------------------------|-------------------------|----------------------------|
--3-3--3-----x-4-4--4-----x-|--6-6-4-6--------------x-|--3-3--3-----x-4-4--4-----x-|



Couplets
--------------------------|--------------------------|--------------------------|-------------------------|
--------------------------|-----------------6-----8--|--------------------------|----------------6-----8--|
--------------------------|--------------------------|--------------------------|-------------------------|
--6-------4-5-6-------6-4-|--6-------4-5-6-----------|--6-------4-5-6-------6-4-|--6------4-5-6-----------|


--------------------------|--------------------------|-------------------------|--------------------------|
--------------------------|-----------------6-----8--|-------------------------|---------------11-----13--|
--8-------8-6-8-------6-7-|--8-------8-6-8-----------|--6-------6-4-6----------|--------------------------|
--------------------------|--------------------------|----------------------6--|--7------6--7-------------|


--------------------------|--------------------------|--------------------------|-------------------------|
--------------------------|-----------------6-----8--|--------------------------|----------------6-----8--|
--------------------------|--------------------------|--------------------------|-------------------------|
--6-------4-5-6-------6-4-|--6-------4-5-6-----------|--6-------4-5-6-------6-4-|--6------4-5-6-----------|




Bridge 1:50 - 2:05 
G||-------------------------|-------------------------|-------------------------|-------------------------|
D||--4----------------------|-------------------------|-------------------------|-------------------------|
A||-------------------------|-------------------------|-------------------------|-------------------------|
E||----------2-2-2-------2--|--6-------6-6-6-------6--|--2-------2-2-2-------2--|--6-------6-6-6-------6--|


---------------------------|-------------------------|-------------------|-------------------|
---------------------------|-------------------------|-------------------|-------------------|
--6-6--------6-6-----------|-------------------------|-------------------|-------------------|
-----------6----------4--5-|--5-----5-5------5--1----|--1----------------|-------------------|



Break 3:18 - 3:34
G||----------------------|-------------------|----------------------|-------------------|
D||----------------------|-------------------|----------------------|-------------------|
A||----------------------|-------------------|----------------------|-------------------|
E||--2------------2-4----|--6----------------|--2------------2-4----|--6----------------|


 
-------------------|--------------------|---------------------|--------------------------|
-------------------|--------------------|---------------------|--------------------------|
--6----------------|--12----------------|--8------------8--8--|--8--8--8--8--8--8--8--8--|
-------------------|--------------------|---------------------|--------------------------|
    
    

4 Commentaires

1 2 3 4 5
1 note
Notes pour Smoke And Mirrors Basse Tab - (Jamiroquai) | Slappyto : 5/5 sur 1 note
#4
08/01/2012 11:57:38
Décidément

lien réparé 
0
0
#3
07/01/2012 20:46:01

Le pdf et le fichier guitar pro ne sont pas accessible sur le site  http://junk1000.free.free.fr/menutabs.html (erreur 404).

0
0
#2
06/01/2012 13:45:36
Saperlote    j'ai zappé un bout.

Une bonne âme parmi tous les musiciens formidables qui fréquentent ce site va bien ce dévouer.

Sinon, il ne te reste plus qu'a chercher un peu ça développe les oreilles  
0
+1
#1
05/01/2012 20:51:39
Il manque pas quelque chose entre 3.00 et 3.18 ?
0
0

En Live

Glimmerkajal vient tout juste de rejoindre la communauté Slappyto. Bienvenue ! il y a 2 jours
Wario a commenté le topic [videothèque des sons] de mr gone il y a 1 semaine
Lebollos59 vient tout juste de rejoindre la communauté Slappyto. Bienvenue ! il y a 1 semaine
GregRock vient tout juste de rejoindre la communauté Slappyto. Bienvenue ! il y a 1 semaine
Chris927 vient tout juste de rejoindre la communauté Slappyto. Bienvenue ! il y a 2 semaines
Greeshma vient tout juste de rejoindre la communauté Slappyto. Bienvenue ! il y a 2 semaines
Ludo ZEFISH vient tout juste de rejoindre la communauté Slappyto. Bienvenue ! il y a 2 semaines
Nicobass1793 vient tout juste de rejoindre la communauté Slappyto. Bienvenue ! il y a 2 semaines
Indonesiae vient tout juste de rejoindre la communauté Slappyto. Bienvenue ! il y a 2 semaines