ConnexionConnexionInscription
B E A D G
141 connectés Aller à Sweepyto Guitare

The Offspring - Come Out and Play [ Artiste ]

Publié par le
16/12/2011
8220 vues
Débutant 2
http://www.youtube.com/watch?v=Vs0OSasQYgA
    
        

*************************************
* The Offspring : Come Out and Play *
*************************************

mesure = 4/4, tempo = 158, subdivision (-) = croche
suggestion de réglages :
    micro : 100% chevalet
    EQ = 100% bass / 100% mid / 50% treble

Intro :
 |: 8x   :|: 4x            :|
G|--------|--------|--------|
D|--------|---0----|---0----|
A|--------|2-----0-|2-----0-|
E|--------|-----2--|-----2--|

Solo :
 |: 3x            :|
G|--------|--------|--------|--------|
D|--------|------0-|--------|--------|
A|2-----0-|2-------|2-----0-|2+------|
E|---2-2--|---2----|---2----|--------|

Couplet :
 |: 4x            :|: 2x            :|
G|--------|--------|----0---|--------|--------|--------|--------|--------|
D|--------|---0----|2-------|4-----0-|--------|---0----|4-4-444-|4444444-|
A|2-----0-|2-----0-|--------|---2-2--|2-----0-|2-----0-|--------|--------|
E|---2-2--|-----2--|--------|--------|---2-2--|-----2--|--------|--------|

Refrain :
 |: 2x                              :|
G|--------|--------|--------|--------|--------|--------|--------|--------|--------|--------|--------|--------|
D|---0----|---0----|---0----|--------|---0----|---0----|2---2---|--------|---0----|--------|---0----|--------|
A|2-----0-|2-----0-|2-----0-|2+------|2-----0-|2-----0-|--------|3---3-3-|2-----0-|------0-|2-----0-|2+------|
E|-----2--|-----2--|-----2--|--------|-----2--|-----2--|--------|--------|-----2--|2-------|-----2--|--------|

Solo
Couplet
Refrain

Couplet 2 :
 |: 4x            :|: 2x            :|
G|--------|--------|----0---|--------|--------|--------|--------|--------|
D|--------|------0-|2-------|4-----0-|--------|---0----|4-4-444-|4444444-|
A|2-----0-|2-------|--------|---2-2--|2-----0-|2-----0-|--------|--------|
E|---2-2--|---2----|--------|--------|---2-2--|-----2--|--------|--------|

Refrain

=========================================================================================================================
Légende : + = étouffer la corde (stopper le son)
          |: Nx :| = répéter N fois le passage entre |: et :|
=========================================================================================================================

Visitez http://www.ilovetabs.com pour d'autres tablatures "+R" pour guitare basse.

    
    

0 Commentaires : réagissez !

1 2 3 4 5
2 notes
Notes pour Come Out And Play Basse Tab - (The Offspring) | Slappyto : 4/5 sur 2 notes
Aucun commentaire !

En Live

Yvesson a commenté le topic [Amateurs de photographie, bon-jour/soir !] de cha0s-the0ry il y a 3 minutes
Yvesson a commenté le topic [Le Topic du Freepost 7] de Vikie il y a 11 minutes
Yvesson, sam et YannGGP ont commenté le topic [La mort de Slappyto?] de kurt il y a 12 minutes
Glimmerkajal vient tout juste de rejoindre la communauté Slappyto. Bienvenue ! il y a 2 jours
Wario a commenté le topic [videothèque des sons] de mr gone il y a 1 semaine
Lebollos59 vient tout juste de rejoindre la communauté Slappyto. Bienvenue ! il y a 1 semaine
GregRock vient tout juste de rejoindre la communauté Slappyto. Bienvenue ! il y a 1 semaine
Chris927 vient tout juste de rejoindre la communauté Slappyto. Bienvenue ! il y a 2 semaines
Greeshma vient tout juste de rejoindre la communauté Slappyto. Bienvenue ! il y a 2 semaines