ConnexionConnexionInscription
B E A D G
139 connectés Aller à Sweepyto Guitare

Bria Valente - Kept woman [ Artiste ]

Publié par le
01/01/2012
3006 vues
Moyen 1
http://www.youtube.com/watch?v=9JiqnkNds6k
    
        

Kept woman                                                   
Bria Valante
Elixer


Intro et refrain
G||-------------------8--10--|------------7--8--7-----|-------------------8--10--|------------7--8--7----|
D||--6------6--8--10---------|--5------5-----------8--|--6------6--8--10---------|--5------5-------------|
A||--------------------------|------------------------|--------------------------|-----------------------|
E||--------------------------|------------------------|--------------------------|-----------------------|



Couplet
G||------------------------------|---------------------------------|------------------------------|
D||------10----8--10--------8----|---------------------10----8--10-|-----------8------------------|
A||---------10-------10----------|--8--11-10-8--10--------10-------|----10----------8--11-10-8----|
E||--8------------------6--------|-----------------8---------------|-------6----------------------|

    
    

0 Commentaires : réagissez !

1 2 3 4 5
2 notes
Notes pour Kept Woman Basse Tab - (Bria Valente) | Slappyto : 2/5 sur 2 notes
Aucun commentaire !

En Live

Glimmerkajal vient tout juste de rejoindre la communauté Slappyto. Bienvenue ! il y a 2 jours
Wario a commenté le topic [videothèque des sons] de mr gone il y a 1 semaine
Lebollos59 vient tout juste de rejoindre la communauté Slappyto. Bienvenue ! il y a 1 semaine
GregRock vient tout juste de rejoindre la communauté Slappyto. Bienvenue ! il y a 1 semaine
Chris927 vient tout juste de rejoindre la communauté Slappyto. Bienvenue ! il y a 2 semaines
Greeshma vient tout juste de rejoindre la communauté Slappyto. Bienvenue ! il y a 2 semaines
Ludo ZEFISH vient tout juste de rejoindre la communauté Slappyto. Bienvenue ! il y a 2 semaines
Nicobass1793 vient tout juste de rejoindre la communauté Slappyto. Bienvenue ! il y a 2 semaines
Indonesiae vient tout juste de rejoindre la communauté Slappyto. Bienvenue ! il y a 2 semaines