ConnexionConnexionInscription
B E A D G
149 connectés Aller à Sweepyto Guitare

The White Stripes - Seven Nation Army [ Artiste ]

Publié par le
01/01/2012
9400 vues
Débutant 1
http://www.youtube.com/watch?v=0J2QdDbelmY
    
        

Titre: Seven Nation Army
Artiste: White Stripes
Album: Elephant
Auteurs: Jack and Meg White
Tablature: Aragorn-be

Egaliseur: Basses 100% - Médiums 0% - Aigüs 0%

Tempo: 120
Mesure: 4/4

Intro + Couplet

 |:                                 x12 :|
G|-----------0-------------|-------------|
D|-2-----2--------2----0---|-------------|
A|-------------------------|-3-----2-----|
E|-------------------------|-------------|

Pré-refrain

G|---------------------------------|---------------------------------|
D|---------------------------------|---------------------------------|
A|---------------------------------|-0---0---0---0---0---0---0---0---|
E|-3---3---3---3---3---3---3---3---|---------------------------------|

Refrain

 |:                                                                                  x2 :|
G|-----------0-------------|-------------|-----------0-------------|---------------------|
D|-2-----2--------2----0---|-------------|-2-----2--------2----0---|------0--------------|
A|-------------------------|-3-----2-----|-------------------------|-3---------3---2-----|
E|-------------------------|-------------|-------------------------|---------------------|

Sortie de refrain

G|---------------------------------|---------------------------------|
D|---------------------------------|---------------------------------|
A|---------------------------------|-0---0---0---0---0---0---0---0---|
E|-3---3---3---3---3---3---3---3---|---------------------------------|

Intro + Couplet (x12)

Pré-refrain

Refrain (x4)

Sortie de refrain

Intro + Couplet (x12)

Pré-refrain

Refrain (x2)

Sortie de refrain

Outro
                      PM
G|--------|--------|-------------|
D|-2------|--------|-2-----------|
A|--------|--------|-------------|
E|--------|--------|-------------|



22 décembre 2011

    
    

2 Commentaires

1 2 3 4 5
3 notes
Notes pour Seven Nation Army Basse Tab - (The White Stripes) | Slappyto : 5/5 sur 3 notes
#2
30/01/2014 20:11:22

Perso, j 'avais appris :

A I--7----7---10----7---5---3---2

mais cette tab' est beaucoup plus simple !

merci beaucoup ; )

0
0
#1
10/01/2012 23:23:08
simple, efficace, merci   .
0
+1

En Live

Itchy67000 vient tout juste de rejoindre la communauté Slappyto. Bienvenue ! il y a 2 jours
Petifumiste a commenté le topic [Ibanez BTB 555 MP 380€] de petifumiste il y a 2 jours
Didier ridoux a commenté le topic [Fernandes APB-100] de Axel Faure il y a 2 jours
Didier ridoux vient tout juste de rejoindre la communauté Slappyto. Bienvenue ! il y a 2 jours
Lardon : Nouvel interview il y a 3 jours
Harryknot vient tout juste de rejoindre la communauté Slappyto. Bienvenue ! il y a 3 jours
Dambass vient tout juste de rejoindre la communauté Slappyto. Bienvenue ! il y a 3 jours
ZumZum et djeroon ont commenté le topic [Octaver ou 5ème corde (Si/B)? ] de djeroon il y a 4 jours
Reymo a commenté le topic [Super Alim pour pedalboard ] de ilanonbass il y a 6 jours