ConnexionConnexionInscription
B E A D G
129 connectés Aller à Sweepyto Guitare

Pink Floyd - Another brick in the wall - Part II [ Artiste ]

Publié par le
09/01/2012
11508 vues
Débutant 3
http://www.youtube.com/watch?v=pB7HSah2FsY
    
        

Drop D

  00:06            00:15         X4
G|----------------|----------------|----------------|----------------|
D|----------------|----------------|----------------|----------------|
A|----------------|---3-5-5-5-0-3--|----------------|----------------|
D|-0--------------|-0--------------|----------------|----------------|

  00:33           
G|----------------|----------------|----------------|----------------|
D|----------------|----------------|----------------|----------------|
A|----------------|----------------|----------------|----------------|
D|-5--------------|-5--------------|-5--------------|----------------|

  00:40 (hey teacher…)              00:47
G|----------------|----------------|----------------|----------------|
D|----------------|----------------|----------------|----------------|
A|--------3-5-3-5-|-5-5-0-3--------|-------3--------|5--3-5-5-5-0----|
D|-5-5-5-5--------|----------------|-3--------------|-------------5--|

  00:57            
G|----------------|----------------|----------------|----------------|
D|----------------|----------------|----------------|----------------|
A|--------3-----5-|----------------|----------------|----------------|
D|-3--------------|----------------|----------------|----------------|

  01:10            01:20         X4    
G|----------------|----------------|----------------|----------------|
D|----------------|----------------|----------------|----------------|
A|----------------|---3-5-5-5-0-3--|----------------|----------------|
D|-0--------------|-0--------------|----------------|----------------|

  01:38
G|----------------|----------------|----------------|----------------|
D|----------------|----------------|----------------|----------------|
A|----------------|----------------|----------------|----------------|
D|-5--------------|-5--------------|-5--------------|----------------|

  01:45                             01:52
G|----------------|----------------|----------------|----------------|
D|----------------|----------------|----------------|----------------|
A|---------3-5-3-5|-5-5-0-3--------|-------3--------|5--3-5-5-5-0----|
D|-5-5-5-5--------|----------------|-3--------------|-------------5--|

  02:01
G|----------------|----------------|----------------|----------------|
D|----------------|----------------|----------------|----------------|
A|-------3--------|5--3-5-5-5-0-3--|----------------|----------------|
D|-3--------------|----------------|----------------|----------------|

  02:11 (entrée solo) 
G|----------------|----------------|----------------|----------------|
D|----------------|----------------|----------------|----------------|
A|---3-5-5-5-0-3--|---3-5--5-3-5---|-5-3-5--5-5-0-3-|----------------|
D|-0--------------|-0--------------|----------------|----------------|

  02:24                          x6  03:20
G|----------------|----------------|----------------|----------------|
D|----------------|----------------|----------------|----------------|
A|---3-5--5-3-5---|-5-3-5--5-5-0-3-|---3-5----------|----------------|
D|-0--------------|----------------|-0--------------|----------------|

    
    

4 Commentaires

1 2 3 4 5
5 notes
Notes pour Another Brick In The Wall - Part II Basse Tab - (Pink Floyd) | Slappyto : 5/5 sur 5 notes
#3
07/02/2012 13:28:30

G|----------------|----------------|--------|----------------|
D|----------------|----------------|--------|----------------|
A|--5-3-5---------|-5-3-5----------|-------|----------------|
D|----------------|----------------|-------|----------------|

 à la sortie du solo, c'est 5-3-5 et à 3:20, idem et non la corde de Ré à vide.

0
0
#2
10/01/2012 23:09:39

merci, c'est vrai que c'est plaisant et ça me reste tout le temps en tête, surtout la partie solo avec le clavier, rhooo comme c'est bon...

0
+1
#1
10/01/2012 23:01:54
Merci bassman, ca fait plaisir à jouer entre deux posts   .
0
0

En Live

Itchy67000 vient tout juste de rejoindre la communauté Slappyto. Bienvenue ! il y a 2 jours
Petifumiste a commenté le topic [Ibanez BTB 555 MP 380€] de petifumiste il y a 2 jours
Didier ridoux a commenté le topic [Fernandes APB-100] de Axel Faure il y a 2 jours
Didier ridoux vient tout juste de rejoindre la communauté Slappyto. Bienvenue ! il y a 2 jours
Lardon : Nouvel interview il y a 3 jours
Harryknot vient tout juste de rejoindre la communauté Slappyto. Bienvenue ! il y a 3 jours
Dambass vient tout juste de rejoindre la communauté Slappyto. Bienvenue ! il y a 3 jours
ZumZum et djeroon ont commenté le topic [Octaver ou 5ème corde (Si/B)? ] de djeroon il y a 4 jours
Reymo a commenté le topic [Super Alim pour pedalboard ] de ilanonbass il y a 6 jours