ConnexionConnexionInscription
B E A D G
117 connectés Aller à Sweepyto Guitare

Nirvana - Smells Like Teen Spirit [ Artiste ]

Publié par le
13/01/2012
28127 vues
Débutant 1
http://www.youtube.com/watch?v=hTWKbfoikeg
    
        

Titre: Smells Like Teen Spirit
Artiste: Nirvana
Album: Nevermind
Auteur: Aragorn-be

Attention : rythme en 4/4, sauf les couplets en 2/4 !

Tempo : 105

Tablatures (voir plus bas pour la structure complète du morceau)
----------

Intro (4/4) - Forte
 |                                               x2|
G|-------------------------|-------------------------|
D|-------------------------|-------------------------|
A|---------------1---1-3---|---------------4---4-----|
E|-1----1------------------|-4----4---------------0--|

Couplet (2/4) - Piano
 |                                                                    x10|
G|-----------------|-----------------|-----------------|-----------------|
D|-----------------|-----------------|-----------------|-----------------|
A|-----------------|-1---1---1---1---|-----------------|-4---4---4---3---|
E|-1---1---1---1---|-----------------|-4---4---4---4---|-----------------|

Refrain (4/4) - Forte
 |                                          x6, x4 ou x10|
G|---------------------------|---------------------------|
D|---------------------------|---------------------------|
A|---------------1---1---1---|---------------4---4---4---|
E|-1----1--------------------|-4----4--------------------|

Pont (4/4) - Forte
 |                                                              x2|
G|------------------------------|---------------------------------|
D|------------------------------|---------------------------------|
A|------------------------------|-----8---8---8---8----6--6---4---0---|
E|-1---1---0---1---2-2-----------|---------------------------------|

X = étouffer la note

Outro (4/4) - Forte

G|------------------------------|---------------------------------|
D|------------------------------|---------------------------------|
A|------------------------------|---------------------------------|
E|-1----------------------------|---------------------------------|


Structure du morceau
--------------------

- 4 temps (4/4) en silence
- Intro (x2)
- Couplet (x10)
- Refrain (x6)
- Pont (x2)
- Couplet (x10)
- Refrain (x6)
- Pont (x2)
- Refrain non chanté (x4)
- Couplet (x10)
- Refrain (x10)
- Outro
    
    

0 Commentaires : réagissez !

1 2 3 4 5
4 notes
Notes pour Smells Like Teen Spirit Basse Tab - (Nirvana) | Slappyto : 5/5 sur 4 notes
Aucun commentaire !

En Live

Jazzbassfoufou vient tout juste de rejoindre la communauté Slappyto. Bienvenue ! il y a 13 heures
MrSpit a commenté le topic [Sandberg Fretless] de MrSpit il y a 17 heures
Sasam a commenté le wall de deni's il y a 4 jours