ConnexionConnexionInscription
B E A D G
153 connectés Aller à Sweepyto Guitare

Temptations - My girl [ Artiste ]

Publié par le
19/01/2012
5536 vues
Débutant 3
http://www.youtube.com/watch?v=NnlkHTH7LKg
    
        

My girl
The temptations

fichier pdf et guitar pro http://junk1000.free.free.fr/menutabs.html

Thème d'intro
        C                                                                                    
G||--------------------------|
D||-----5-----------5--------|
A||--------3--3--------3--3--| 8X
E||--------------------------|



Thème Couplet
        C                                                                                                      
G||------------------------|-------------------------|
D||---------5--------5-----|--3---------3--3---5-----|
A||--3---------3--3--------|---------3---------------| 4X
E||------------------------|-------------------------|


Thème Refrain
        C                       F                                         
G||-----------------7\----|-----------------------|
D||-----------------------|-----------------5\----|
A||--3------3--5----------|-----------------------| 2X
E||-----------------------|--1------1--3----------|


        C                                D                                                      
G||--------------------------|    |------------------------|-----------------------|
D||-----------5-----------5--|    |----------7--------7----|--5----------3--3--5---|
A||--3--3--------3--3--------| 2X |--5----------5--5-------|-----------------------|
E||--------------------------|    |------------------------|-----------------------|


Couplet/ refrain entre 0:50 et 1:42 = pareil ce qui précède



1:42
        D                        G                      E                      A                    
G||------------------------|---------------------|----------------------|------------|
D||--------7-------7-------|--------5------------|------------2---------|------------|
A||--5--------5-------(5)--|---------------------|---------2-------2----|------------|
E||------------------------|--3--------3----1----|--0-------------------|--5--5--5---|


Thème Couplet 3
        D                     G                       D                      G                                
G||------------------|---------------------|--------------------|---------------------|
D||--------7---------|-------5-------------|--------7-----------|-------5-------------|
A||--5--------5------|---------------------|--5-------------5---|---------------------| 2X
E||------------------|--3-------3--3----5--|-----------5--------|--3-------3--3----5--|


Thème Refrain 3
       D                    G                      D                                          
G||--------------------|----------------------|---------------------|--------------------|
D||--------------------|-----------------7----|---------------------|--5-----5--7--------|
A||--5-----5-----------|--------------7-------|--5-----5--7------7--|--------------------|
E||-----------0--------|--3-----3--5----------|---------------------|--------------------|

       D                     D                     E
G||---------------------|-----------------------|---------------------|------------------------|
D||-------7----------7--|---------7----------7--|--------9--------9---|-7--7--5--5--4--4-------|
A||--5-------5--5-------|--5--5------5--5-------|--7--------7--7------|-------------------7--7-|
E||---------------------|-----------------------|---------------------|------------------------|


Final 
      D                                              E  
G||---------------------|----------------------|---------------------|------------------------| 
D||---------------------|----------------------|---------------------|-7--7--5--5--4--4-------| 
A||--5-----5------------|--5-----5--------5----|--7-----7-------7----|-------------------7--7-| 2X
E||-----------5------5--|-----------5--7-------|-----------7---------|------------------------| 

    
    

0 Commentaires : réagissez !

1 2 3 4 5
1 note
Notes pour My Girl Basse Tab - (Temptations) | Slappyto : 5/5 sur 1 note
Aucun commentaire !

En Live

Cell a commenté le topic ["recherche" Digitech bass synth wah] de Cell il y a 2 heures
Cell et yvesson ont commenté le topic [Le Topic du Freepost 7] de Vikie il y a 2 heures
Cell a commenté le topic ["recherche" Digitech bass synth wah] de Cell il y a 2 heures
Yvesson a commenté le topic [Amateurs de photographie, bon-jour/soir !] de cha0s-the0ry il y a 15 heures
Yvesson, sam et YannGGP ont commenté le topic [La mort de Slappyto?] de kurt il y a 15 heures
Glimmerkajal vient tout juste de rejoindre la communauté Slappyto. Bienvenue ! il y a 3 jours
Wario a commenté le topic [videothèque des sons] de mr gone il y a 1 semaine
Lebollos59 vient tout juste de rejoindre la communauté Slappyto. Bienvenue ! il y a 1 semaine
GregRock vient tout juste de rejoindre la communauté Slappyto. Bienvenue ! il y a 1 semaine
Chris927 vient tout juste de rejoindre la communauté Slappyto. Bienvenue ! il y a 2 semaines