ConnexionConnexionInscription
B E A D G
139 connectés Aller à Sweepyto Guitare

Blur - Country House [ Artiste ]

Publié par le
17/12/2010
5313 vues
Débutant 3
http://www.youtube.com/watch?v=ci0fyRAw21Q
    
        

Intro
G|--6655443322110-----|
D|---------------432--|
A|--------------------|
E|--------------------|

G|----------------------------------------------------66554433221100--|
D|--------------------------------------------------------------------|
A|------------------2-2-----2-2-----5-5-----4-4-----4-----------------|
E|--5-5-----0-0-------------------------------------------------------|

Verse
G|----------------------------------------------------66554433221100--|
D|--------------------------------------------------------------------|
A|----------------------------------5-5-----4-4-----4-----------------|
E|--5-5-----0-0-----7-7-----7-7---------------------------------------| X2

G|----------------------------------------------------665544--|
D|------------------------------------------------------------|
A|----------------------------------5-5-----4-4-----4---------|
E|--5-5-----0-0-----7-7-----7-7-------------------------------|

Pre-Chorus
G|------------------------------------|
D|------------------------------------|
A|--7-----------------------5---5-7---|
E|------0---0---0---0---0-----7-------|

1st Chorus & Last Chorus
G|--------------------------7-----7-----5-------5---------------------|
D|----------------------6-9-----9---------7-------7---------7---------|
A|------4-7---4-5-6-7-7-------------5-5-----5-5---------4-7-----7-----|
E|--5-5-----5---------------------------------------5-5---------------|

G|--------------------------7-----7-----5-----------------------------|
D|----------------------6-9-----9---------7---4-5-6---------7---6-----|
A|------4-7---4-5-6-7-7-------------5-5-----5-----------4-7-----------|
E|--5-5-----5---------------------------------------5-5---------------|

2nd Chorus
G|--------------------------7-----7-----5-------5---------------------|
D|----------------------6-9-----9---------7-------7---------7---------|
A|------4-7---4-5-6-7-7-------------5-5-----5-5---------4-7-----7-----|
E|--5-5-----5---------------------------------------5-5---------------|

G|--------------------------7-----7-----5---------------------|
D|----------------------6-9-----9---------7---4-5-6-----------|
A|------4-7---4-5-6-7-7-------------5-5-----5-----------4-7---|
E|--5-5-----5---------------------------------------5-5-------|

G|----------------------------------------------------|
D|----------------------------------------------------|
A|--------------7-----------5---4-----------5---5-7---|
E|--0---0---0-------0---0---------7-0---0-----7-------|

Bridge
G|----------------------------------------------------66554433221100--|
D|--------------------------------------------------------------------|
A|----------------------------------5-5-----4-4-----4-----------------|
E|--5-5-----0-0-----7-7-----7-7---------------------------------------|

G|----------------------------------------------------6655443322110-----------|
D|-----------------------------------------------------------------432--------|
A|----------------------------------5-5-----4-4-----4-----------------0~------|
E|--5-5-----0-0-----7-7-----7-7-----------------------------------------------|
	
    
    

0 Commentaires : réagissez !

1 2 3 4 5
1 note
Notes pour Country House Basse Tab - (Blur) | Slappyto : 5/5 sur 1 note
Aucun commentaire !

En Live

Yvesson a commenté le topic [Amateurs de photographie, bon-jour/soir !] de cha0s-the0ry il y a 22 minutes
Yvesson a commenté le topic [Le Topic du Freepost 7] de Vikie il y a 30 minutes
Yvesson, sam et YannGGP ont commenté le topic [La mort de Slappyto?] de kurt il y a 31 minutes
Glimmerkajal vient tout juste de rejoindre la communauté Slappyto. Bienvenue ! il y a 2 jours
Wario a commenté le topic [videothèque des sons] de mr gone il y a 1 semaine
Lebollos59 vient tout juste de rejoindre la communauté Slappyto. Bienvenue ! il y a 1 semaine
GregRock vient tout juste de rejoindre la communauté Slappyto. Bienvenue ! il y a 1 semaine
Chris927 vient tout juste de rejoindre la communauté Slappyto. Bienvenue ! il y a 2 semaines
Greeshma vient tout juste de rejoindre la communauté Slappyto. Bienvenue ! il y a 2 semaines