ConnexionConnexionInscription
B E A D G
145 connectés Aller à Sweepyto Guitare

Marcus Miller - Come together [ Artiste ]

Publié par le
25/02/2012
10148 vues
Avancé 1
http://www.youtube.com/watch?v=PxNGzd1UqX4
    
        

Marcus Miller
Come Together
Live a Amsterdam


1ère partie en slap, voir la vidéo 

     Em                                                                                               
G|-------------12------9-|-------------12------9-|-------------12------9-|-----------13{--12--9--|
D|--------5_9------------|--------5_9------------|--------5_9------------|--9--9--9--------------|
A|-----------------------|-----------------------|-----------------------|-----------------------|
E|--0--0-----------------|--0--0-----------------|--0--0-----------------|-----------------------|


G|---12---12-------------|---12------12----------|--12---12--12----------|-12--12-----12---------|
D|-----------14--12--14--|------14----14--12--14-|------------14--12--14-|--------14-------------|
A|-----------------------|-----------------------|-----------------------|-------------12-13--14-|
E|-----------------------|-----------------------|-----------------------|-----------------------|

                                           slide
G|--11----9--11------9--|--11--11--9--11---------|-12-12-12---12-12-12---|-12-12----12-----------|
D|----------------------|------------------------|----------14--------14-|-------14----------12--|
A|----------------------|-------------------2_10-|-----------------------|-------------12-14---14|
E|----------------------|------------------------|-----------------------|-----------------------|


la suite en pdf et guitar pro5

http://junk1000.free.free.fr/menutabs.html
    
    

0 Commentaires : réagissez !

1 2 3 4 5
1 note
Notes pour Come Together Basse Tab - (Marcus Miller) | Slappyto : 2/5 sur 1 note
Aucun commentaire !

En Live

Yvesson a commenté le topic [Amateurs de photographie, bon-jour/soir !] de cha0s-the0ry il y a 6 minutes
Yvesson a commenté le topic [Le Topic du Freepost 7] de Vikie il y a 14 minutes
Yvesson, sam et YannGGP ont commenté le topic [La mort de Slappyto?] de kurt il y a 14 minutes
Glimmerkajal vient tout juste de rejoindre la communauté Slappyto. Bienvenue ! il y a 2 jours
Wario a commenté le topic [videothèque des sons] de mr gone il y a 1 semaine
Lebollos59 vient tout juste de rejoindre la communauté Slappyto. Bienvenue ! il y a 1 semaine
GregRock vient tout juste de rejoindre la communauté Slappyto. Bienvenue ! il y a 1 semaine
Chris927 vient tout juste de rejoindre la communauté Slappyto. Bienvenue ! il y a 2 semaines
Greeshma vient tout juste de rejoindre la communauté Slappyto. Bienvenue ! il y a 2 semaines