ConnexionConnexionInscription
B E A D G
60 connectés Aller à Sweepyto Guitare

Aloe Blacc - I need a dollar [ Artiste ]

Publié par le
22/02/2012
18607 vues
Moyen 1
http://www.youtube.com/watch?v=KbVHbEGerRA
    
        

I need a dollar
Aloe Blacc



Fichiers gp5 et pdf = http://junk1000.free.free.fr/menutabs.html

Intro
G|-------------------|-------------------------|-------------------|-------------------|
D|-------------------|-------------------4-----|-------------------|-------------------|
A|-------------------|-----------------------x-|-------------------|-------------------|
E|--4----------------|-------------------------|--4----------------|-------------------|



Couplet
      G#           F#              C#                                          
G|---------------------6-4-6--|----------------------------|	
D|--6--6--6--6---4--4---------|------------------------4-5-|3X	
A|-------------6--------------|--4--4--4--4-2-4--4--4------|	
E|----------------------------|----------------------------|	


   G#           F#              C#                        
|---------------------6-4-6--|---------------------------|
|--6--6--6--6---4--4---------|---------------------------|
|-------------6--------------|--4--4--4--4-2-4--4--4-6---|
|----------------------------|---------------------------|


  G#           F#              C#                           G#           F#              C#                        
---------------------6-4-6-|----------------------------|---------------------6-4-6-|--------------------------|
--6--6--6--6---4--4--------|------------------------4-5-|--6--6--6--6---4--4--------|--------------------------|
-------------6-------------|--4--4--4--4-2-4--4--4------|-------------6-------------|--4--4--4--4-2-4--4--4-6--|
---------------------------|----------------------------|---------------------------|--------------------------|


Refrain
      D#          G#             C#                               	  C#                                       
G|--------------------------|---------6-6-----6-6-----6-----|		|--------------------------|
D|--------------6----x-6----|----------------------------6--|3X		|--------------------------|
A|--6----x-6----------------|--4----x-------x-------x-------|		|--4-----4-----4-----4-6---|
E|--------------------------|-------------------------------|		|--------------------------|



Rejouer Couplet et Refrain 1X


Bridge

       D#                                                                                                              
G||---------8-----------|	|--------|---------|---------|-------------6-8---|------|
D||-------8-------------|4X	|--------|---------|---------|-------------------|------|
A||--6-6-------4--------|	|--------|---------|---------|-------------------|------|
E||---------------------|	|--------|---------|---------|-------------------|------|


Rejouer Couplet 2X
    
    

0 Commentaires : réagissez !

1 2 3 4 5
2 notes
Notes pour I Need A Dollar Basse Tab - (Aloe Blacc) | Slappyto : 5/5 sur 2 notes
Aucun commentaire !

En Live

Pat, grobass et cdurand ont commenté le topic [Besoin de conseil pour achat basse d'occas'] de cdurand il y a 1 heure
Synchronnn et popolito ont commenté le topic [Stingray 2eq teal green] de popolito il y a 12 heures
Janud et bassman59 ont commenté le topic [Schema de câblage spécial] de Janud il y a 1 jour
EddyCap, grobass et Wario ont commenté le topic [Évaluation prix Fender Jazz Bass FL circa 2004] de EddyCap il y a 1 jour
EddyCap a accepté le message de grobass il y a 1 jour
Grobass a voté pour le message de pat il y a 1 jour
Lasshowl a commenté le topic [Chainage encore et toujours...] de Lasshowl il y a 2 jours
Cdurand vient tout juste de rejoindre la communauté Slappyto. Bienvenue ! il y a 2 jours