ConnexionConnexionInscription
B E A D G
150 connectés Aller à Sweepyto Guitare

Vanessa Paradis - Bliss (une nuit à versailles) [ Artiste ]

Publié par le
21/03/2012
1704 vues
Débutant 2
http://www.youtube.com/watch?v=XF3V4wDXzvo
    
        

Vanessa Paradis
Bliss
Une nuit à Versailles


Couplet

G|----------10------------|----------10------------|----------10------------|----------8------------|
D|--8------------------8--|--7------------------7--|--6------------------8--|-----------------------|
A|------------------------|------------------------|------------------------|--6-----------------8--|
E|------------------------|------------------------|------------------------|-----------------------|


G|----------10------------|----------10------------|----------10------------|-----------------------|
D|--8------------------8--|--7------------------7--|--6------------------8--|-----------------------|
A|------------------------|------------------------|------------------------|--6-------6--------10--|
E|------------------------|------------------------|------------------------|-----------------------|


     Bb                    Eb                      Bb                    Db                
G|---------------------|-----------------------|---------------------|-------------------|
D|---------------------|-----------------------|---------------------|-------------------|
A|---------------------|--6------6---------10--|---------------------|-------------------|
E|--8------8-----------|-----------------------|--8------8-----------|--9----------------|



Refrain
     Bb                       Eb                       Bb                       Eb                        
G|------------------------|------------------------|------------------------|-------------------------|
D|--8-------8-------8-----|------------------------|--8-------8-------8-----|----------------5--6--7--|
A|------------------------|--6-------6-------6-----|------------------------|--6-------6--------------|
E|------------------------|------------------------|------------------------|-------------------------|


  Bb                       Eb                       Bb                       Db              Eb           
-----------------------|-----------------------|-----------------------|---------------|-----------------|
--8-------8-------8----|-----------------------|--8-------8-------8----|---------------|-----------------|
-----------------------|--6-------6-------6----|-----------------------|--4------------|-----6-----6-----|
-----------------------|-----------------------|-----------------------|---------------|-----------------|


Couplet
Refrain


Bridge
    Db                                            Eb                                         
G|-------------------6--|--6-------------------|---------------------|----------------------|
D|---------6------------|---------6------------|---------8-----------|---------8------------|
A|--4-------------------|----------------4S----|--6------------------|--6----------------6--|
E|----------------------|----------------------|------------------6--|----------------------|


     Db                                            Eb                                          
G|----------------------|----------------------|---------------------|-----------------------|
D|---------6------------|---------6------------|---------8-----------|---------8-------------|
A|--4-------------------|--4-------------4-----|--6------------------|--6-------------6---8--|
E|-------------------4--|----------------------|------------------6--|-----------------------|


       F                                                                                                      
G|------------------8---|---8--6-------------------|-------------10--10--8--|----------------------|
D|----------------------|-----------6--------------|--------8---------------|-----10--8------------|
A|--6-8-----------------|----------------6-8--6-8--|--6---------------------|--------------8--6----|
E|-----------4----------|--------------------------|------------------------|----------------------|


     Db                                                                      Db                  
G|----------------------|---------------------|--------------------------|---------------------|
D|---------6------------|---------6-----------|--------------------------|---------6-----------|
A|--4-------------------|--4-------------4----|--------------------------|--4-------------4----|
E|-------------------4--|---------------------|--1--1--1--4--4--4--1--4--|---------------------|


     Db         Bb                                                                 Db        Eb 
G|----------|------------|--------|--------|--------|--------|--------|--------|----------------------|
D|----------|------------|--------|--------|--------|--------|--------|--------|----------------------|
A|--6-------|--13--------|--------|--------|--------|--------|--------|--------|--4----4----6----6----|
E|----------|------------|--------|--------|--------|--------|--------|--------|----------------------|


Refrain



    
    

0 Commentaires : réagissez !

1 2 3 4 5
0 notes
Aucun commentaire !

En Live

MamieTromblon et gozo ont commenté le topic [Ibanez K5 Fieldy de 2013 450 EUROS] de MamieTromblon il y a 5 heures
Robeforjudaw vient tout juste de rejoindre la communauté Slappyto. Bienvenue ! il y a 7 heures
BlueSubaru et 3dd-titix ont commenté le topic [musicman sterling USA ] de 3dd-titix il y a 12 heures
Ray a voté pour le message de yaumegui il y a 1 jour
Anne33 vient tout juste de rejoindre la communauté Slappyto. Bienvenue ! il y a 2 jours
Tazzzbass, polo 31400 et RomBass91 ont commenté le topic [Vends Warwick Thumb Nt5 1200€] de tazzzbass il y a 3 jours
Golmout80 et 7tit ont commenté le topic [Vends Bass Big Muff Pi] de Golmout80 il y a 3 jours
BlueSubaru a voté pour le message de Sayhnes il y a 3 jours