ConnexionConnexionInscription
B E A D G
109 connectés Aller à Sweepyto Guitare

Franz ferdinand - Take me out [ Artiste ]

Publié par le
28/05/2012
3963 vues
Moyen 1
http://www.youtube.com/watch?v=GhCXAiNz9Jo&ob=a...
    
        

A jouer au médiator


Tempo = 147


G |----------------------------------------------------|
D |----------------------------------------------------|
A |--------------------------------------------7--7----|
E |----------------------------------------------------|


----------------------------|----------------------------|
----------------------------|----------------------------|
--7-----7--7--7--7--7--7----|--7--7--7--7--7--7--7--7----|
----------------------------|----------------------------|


----------------------------|----------------------------|
----------------------------|----------------------------|
--7--7--7--7--7--7--7--7----|--7--7--7--7--7--7--7--7----|
----------------------------|----------------------------|


----------------------------|--7--7--7--7--7--7--7--7----|
--7--7--7--7--7--7--7--7----|----------------------------|
----------------------------|----------------------------|
----------------------------|----------------------------|


----------------------------|--9--9--9--9--9--9--9--9----|
--5--5--5--5/-9--9--9--9----|----------------------------|
----------------------------|----------------------------|
----------------------------|----------------------------|


----------------------------|--7--7--7--7--7--7--7--7----|
--7--7--7--7--7--7--7--7----|----------------------------|
----------------------------|----------------------------|
----------------------------|----------------------------|


----------------------------|--9--9--9--9--9--9--9--9----|
--5--5--5--5/-9--9--9--9----|----------------------------|
----------------------------|----------------------------|
----------------------------|----------------------------|


----------------------------|--7--7--7--7--7--7--7--7----|
--7--7--7--7--7--7--7--7----|----------------------------|
----------------------------|----------------------------|
----------------------------|----------------------------|


----------------------------|--9--9--9--9--9--9--9--9----|
--5--5--5--5/-9--9--9--9----|----------------------------|
----------------------------|----------------------------|
----------------------------|----------------------------|


----------------------------|--7--7--7--7--7--7--7--7----|
--7--7--7--7--7--7--7--7----|----------------------------|
----------------------------|----------------------------|
----------------------------|----------------------------|


----------------------------|--9--9--9--9--9--9--9--9----|
--5--5--5--5/-9--9--9--9----|----------------------------|
----------------------------|----------------------------|
----------------------------|----------------------------|


----------------------------|--9--9--9--9--9--9--9--9----|
--5--5--5--5--7--7--7--7----|----------------------------|
----------------------------|----------------------------|
----------------------------|----------------------------|


----------------------------|----------------------------|
----------------------------|----------------------------|
----------------------------|----------------------------|
--3--3--3--3--5--5--5--5----|--0--0--0--0--0--0--0--0----|


----------------------------|----------------------------|
----------------------------|----------------------------|
----------------------------|--5--5--5--5--5--5--5--5----|
--3--3--3--3--3--3--3--3----|----------------------------|

                             Tempo = 107
----------------------------|----------------------------|
----------------------------|----------------------------|
----------------------------|--3--3--3--3--3--3--3--3----|
--1--1--1--1--1--1--1--1----|----------------------------|


----------------------------|----------------------------|
----------------------------|----------------------------|
--7--7--7--7--7--7--7--7----|--7--7--7--7--7--7--7--7----|
----------------------------|----------------------------|


----------------------------|----------------------------|
----------------------------|----------------------------|
--7--7--7--7--7--7--7--7----|--7--7--7--7--7--7--7--7----|
----------------------------|----------------------------|


----------------------------|----------------------------|
----------------------------|----------------------------|
--7-----7-----7-----7-------|--7-----7-----7-----7-------|
----------------------------|----------------------------|


----------------------------|----------------------------|
----------------------------|----------------------------|
--7-----7-----7-----7-------|--7-----7-----7-----7-------|
----------------------------|----------------------------|


----------------------------------------------------|
----------------------------------------------------|
--7-----------7-----------7-----------7--10---------|
----------------------------------------------------|


----------------------------------------------------|
----------------------------------------------------|
--7-----------7-----------7-----------7--10---------|
----------------------------------------------------|


----------------------------------------------------|
----------------------------------------------------|
----------------------------------------------------|
--5-----------5-----------5-----------5--6----------|


----------------------------------------------------|
----------------------------------------------------|
----------------------------------------------------|
--7-----------7-----------7-----------7--10---------|


----------------------------------------------------|
----------------------------------------------------|
--7-----------7-----------7-----------7--10---------|
----------------------------------------------------|


----------------------------------------------------|
----------------------------------------------------|
--7-----------7-----------7-----------7--10---------|
----------------------------------------------------|


----------------------------------------------------|
----------------------------------------------------|
----------------------------------------------------|
--5-----------5-----------5-----------5--6----------|


----------------------------------------------------|
----------------------------------------------------|
----------------------------------------------------|
--7-----------7-----------7-----------7--10---------|


----------------------------------------------------|
----------------------------------------------------|
--7-----------7-----------7-----------7--10---------|
----------------------------------------------------|


----------------------------------------------------|
----------------------------------------------------|
--7-----------7-----------7-----------7--10---------|
----------------------------------------------------|


----------------------------------------------------|
----------------------------------------------------|
----------------------------------------------------|
--5-----------5-----------5-----------5--6----------|


----------------------------------------------------|
----------------------------------------------------|
----------------------------------------------------|
--7-----------7-----------7-----------7--10---------|


----------------------------------------------------|
----------------------------------------------------|
--7-----------7-----------7-----------7--10---------|
----------------------------------------------------|


----------------------------------------------------|
----------------------------------------------------|
--7-----------7-----------7-----------7--10---------|
----------------------------------------------------|


----------------------------------------------------|
----------------------------------------------------|
----------------------------------------------------|
--5-----------5-----------5-----------5--6----------|


----------------------------------------------------|
----------------------------------------------------|
----------------------------------------------------|
--7-----------7-----------7-----------7--10---------|


----------------------------------------------------|
----------------------------------------------------|
--7-----------7-----------7-----------7--10---------|
----------------------------------------------------|


----------------------------------------------------|
----------------------------------------------------|
--7-----------7-----------7-----------7--10---------|
----------------------------------------------------|


----------------------------------------------------|
----------------------------------------------------|
----------------------------------------------------|
--5-----------5-----------5-----------5--6----------|


----------------------------------------------------|
----------------------------------------------------|
----------------------------------------------------|
--7-----------7-----------7-----------7--10---------|


----------------------------------------------------|
----------------------------------------------------|
--7-----------7-----------7-----------7--10---------|
----------------------------------------------------|


----------------------------------------------------|
----------------------------------------------------|
--7-----------7-----------7-----------7--10---------|
----------------------------------------------------|


----------------------------------------------------|
----------------------------------------------------|
----------------------------------------------------|
--5-----------5-----------5-----------5--6----------|


----------------------------------------------------|
----------------------------------------------------|
----------------------------------------------------|
--7-----------7-----------7-----------7--10---------|


----------------------------------------------------|
----------------------------------------------------|
--7-----------7-----------7-----------7--10---------|
----------------------------------------------------|


----------------------------------------------------|
----------------------------------------------------|
--7-----------7-----------7-----------7--10---------|
----------------------------------------------------|


----------------------------------------------------|
----------------------------------------------------|
----------------------------------------------------|
--5-----------5-----------5-----------5--6----------|


----------------------------------------------------|
----------------------------------------------------|
----------------------------------------------------|
--7-----------7-----------7-----------7--10---------|


----------------------------|----------------------------|
----------------------------|----------------------------|
--7-----7-----7-----7-------|--7-----7-----7-----7-------|
----------------------------|----------------------------|


----------------------------|----------------------------|
--7--7--5--5--4--4----------|----------------------------|
--------------------7--7----|----------------------------|
----------------------------|--8--8--8--8--10-10-10-10---|


----------------------------|----------------------------|
--7--7--5--5--4--4----------|----------------------------|
--------------------7--7----|----------------------------|
----------------------------|--8--8--8--8--10-10-10-10---|


----------------------------|----------------------------|
--7--7--5--5--4--4----------|----------------------------|
--------------------7--7----|----------------------------|
----------------------------|--8--8--8--8--10-10-10-10---|


----------------------------|----------------------------|
--7--7--5--5--4--4----------|----------------------------|
--------------------7--7----|----------------------------|
----------------------------|--8--8--8--8--10-10-10-10---|


----------------------------------------------------|
----------------------------------------------------|
--7-----------7-----------7-----------7--10---------|
----------------------------------------------------|


----------------------------------------------------|
----------------------------------------------------|
--7-----------7-----------7-----------7--10---------|
----------------------------------------------------|


----------------------------------------------------|
----------------------------------------------------|
----------------------------------------------------|
--5-----------5-----------5-----------5--6----------|


----------------------------------------------------|
----------------------------------------------------|
----------------------------------------------------|
--7-----------7-----------7-----------7--10---------|


----------------------------------------------------|
----------------------------------------------------|
--7-----------7-----------7-----------7--10---------|
----------------------------------------------------|


----------------------------------------------------|
----------------------------------------------------|
--7-----------7-----------7-----------7--10---------|
----------------------------------------------------|


----------------------------------------------------|
----------------------------------------------------|
----------------------------------------------------|
--5-----------5-----------5-----------5--6----------|


----------------------------------------------------|
----------------------------------------------------|
----------------------------------------------------|
--7-----------7-----------7-----------7--10---------|


----------------------------------------------------|
----------------------------------------------------|
--7-----------7-----------7-----------7--10---------|
----------------------------------------------------|


----------------------------------------------------|
----------------------------------------------------|
--7-----------7-----------7-----------7--10---------|
----------------------------------------------------|


----------------------------------------------------|
----------------------------------------------------|
----------------------------------------------------|
--5-----------5-----------5-----------5--6----------|


----------------------------------------------------|
----------------------------------------------------|
----------------------------------------------------|
--7-----------7-----------7-----------7--10---------|


----------------------------------------------------|
----------------------------------------------------|
--7-----------7-----------7-----------7--10---------|
----------------------------------------------------|


----------------------------------------------------|
----------------------------------------------------|
--7-----------7-----------7-----------7--10---------|
----------------------------------------------------|


----------------------------------------------------|
----------------------------------------------------|
----------------------------------------------------|
--5-----------5-----------5-----------5--6----------|


----------------------------------------------------|
----------------------------------------------------|
----------------------------------------------------|
--7-------------------------------------------------|


----------------------------------------------------|
----------------------------------------------------|
--7-----------7-----------7-----------7--10---------|
----------------------------------------------------|


----------------------------------------------------|
----------------------------------------------------|
--7-----------7-----------7-----------7--10---------|
----------------------------------------------------|


----------------------------------------------------|
----------------------------------------------------|
----------------------------------------------------|
--5-----------5-----------5-----------5--6----------|


----------------------------------------------------|
----------------------------------------------------|
----------------------------------------------------|
--7-----------7-----------7-----------7--10---------|


----------------------------|----------------------------|
----------------------------|----------------------------|
--7-----7-----7-----7-------|--7-----7-----7-----7-------|
----------------------------|----------------------------|


----------------------------|----------------------------|
--7--7--5--5--4--4----------|----------------------------|
--------------------7--7----|----------------------------|
----------------------------|--8--8--8--8--10-10-10-10---|


----------------------------|----------------------------|
--7--7--5--5--4--4----------|----------------------------|
--------------------7--7----|----------------------------|
----------------------------|--8--8--8--8--10-10-10-10---|


----------------------------|----------------------------|
--7--7--5--5--4--4----------|----------------------------|
--------------------7--7----|----------------------------|
----------------------------|--8--8--8--8--10-10-10-10---|


----------------------------|----------------------------|
--7--7--5--5--4--4----------|----------------------------|
--------------------7--7----|----------------------------|
----------------------------|--8--8--8--8--10-10-10-10---|


----------------------------|----------------------------|
----------------------------|----------------------------|
--7-----7-----7-----7-------|--7-----7-----7-----7-------|
----------------------------|----------------------------|


----------------------------|-------|-------|-------|-------|-------|-------|
----------------------------|-------|-------|-------|-------|-------|-------|
--7-----7-----7-----7-------|--7(ring)------|-------|-------|-------|-------|


    
    

0 Commentaires : réagissez !

1 2 3 4 5
0 notes
Aucun commentaire !

En Live

Sasam a commenté le wall de deni's il y a 3 jours
Akh vient tout juste de rejoindre la communauté Slappyto. Bienvenue ! il y a 4 jours
BeRnY vient tout juste de rejoindre la communauté Slappyto. Bienvenue ! il y a 5 jours