ConnexionConnexionInscription
B E A D G
140 connectés Aller à Sweepyto Guitare

KC & The Sunshine Band - That's The Way (I Like It) [ Artiste ]

Publié par le
28/05/2012
3850 vues
Moyen 1
http://www.youtube.com/watch?v=q3svW8PM_jc
    
        

That's the way (I like it)
KC and the Sunshine Band 
tempo = 108


Thème A (4x)
G||-----------------------|-------------------------|
D||-----------------------|------1---3---3-3-1------|
A||---------------3-------|---------------------3---|
E||--1---3---4-------4----|--1----------------------|


Thème B (4x)
                        slide
G||----------------------5--|------------------------|
D||-------------------------|------------------------|
A||--3--2----------1--------|--3--------------1------|
E||-------------3-----3-----|-------------3-------3--|


On alterne le thème A et B tout au long du morceau
    
    

0 Commentaires : réagissez !

1 2 3 4 5
3 notes
Notes pour That's The Way (I Like It) Basse Tab - (KC & The Sunshine Band ) | Slappyto : 4/5 sur 3 notes
Aucun commentaire !

En Live

Wario a commenté le topic [videothèque des sons] de mr gone il y a 5 jours
Lebollos59 vient tout juste de rejoindre la communauté Slappyto. Bienvenue ! il y a 5 jours
GregRock vient tout juste de rejoindre la communauté Slappyto. Bienvenue ! il y a 6 jours
Chris927 vient tout juste de rejoindre la communauté Slappyto. Bienvenue ! il y a 1 semaine
Greeshma vient tout juste de rejoindre la communauté Slappyto. Bienvenue ! il y a 1 semaine
Ludo ZEFISH vient tout juste de rejoindre la communauté Slappyto. Bienvenue ! il y a 1 semaine
Nicobass1793 vient tout juste de rejoindre la communauté Slappyto. Bienvenue ! il y a 1 semaine
Indonesiae vient tout juste de rejoindre la communauté Slappyto. Bienvenue ! il y a 1 semaine
Grandbill a commenté la tablature de Coup_de_pelle il y a 1 semaine